Home » D » Delain »

Delain - Your Body Is A Battleground Tabs

Artists:  A B C D E F G H I J K L M N O P Q R S T U V W X Y Z # 

Your Body Is A Battleground Tabs

(ver. 1) Click to play this song!
Delain

         H                             Q      Q     Q     Q     Q
E||------------------------------------------------------------------|
B||------------------------------------------------------------------|
G||------------------------------------------------13----------------|
D||--------------------------------12g14~----13----------14----13----|
A||--14g16~----------------------------------------------------------|
E||------------------------------------------------------------------|


   Q     Q     Q     Q     Q
--------12----------16----15----|
--14----------16----------------|
--------------------------------|
--------------------------------|
--------------------------------|
--------------------------------|


   H         S  S  S. S   H         S  S  S. H         H         H          H.
--16-----------------14s-17-----------------15--------16--------21~---------L~--|
---------------16-17------------------16-17-------------------------------------|
------------18---------------------18-------------------------------------------|
--------------------------------------------------------------------------------|
--------------------------------------------------------------------------------|
--------------------------------------------------------------------------------|


                                          ----------sorry I Tried-----------------|
----------------------------16--------14--12----12---11---11----------------------|
--------------------16--17-------------------------------------14--16--14--???----|
--18--------16--18----------------------------------------------------------------|
----------------------------------------------------------------------------------|
----------------------------------------------------------------------------------|
----------------------------------------------------------------------------------|            
Submit corrections

↑ Back to top | Tablatures and chords for acoustic guitar and electric guitar, ukulele, drums are parodies/interpretations of the original songs. You may use it for private study, scholarship, research or language learning purposes only