Home » D » Delain »

Delain - Turn The Lights Out Tabs

Artists:  A B C D E F G H I J K L M N O P Q R S T U V W X Y Z # 

Turn The Lights Out Tabs

(ver. 1) Click to play this song!
Delain
Come in at chorus 1 (00:49) 

[Part 1]

A|---------------------------------|
E|---------------------------------|
C|---------------------------------|
G|--6---8-------5---6---8---5---5--|
D|--4---6---3---3---4---6---3---3--|
A|----------1----------------------|


[Part 2] 

(01:04)

Guitar 1:
A|-----------------------------------------------------|
E|-----------------------------------------------------|
C|-----------------------------------------------------|
G|--6-6-6-6-6-6--8-8-8-8-8-8---------------5-5-5-5-5-5-|
D|--4-4-4-4-4-4--6-6-6-6-6-6--3-3-3-3-3-3--3-3-3-3-3-3-|
A|----------------------------1-1-1-1-1-1--------------|
    - -   - -    - -   - -    - -   - -    - -   - -  

Guitar 2:             let ring   Guitar 3:
A|--16p14-16h18-|    A|--20-|    A|--16p14-16h18-|  
E|--------------|    E|-----|    E|--------------|
C|--------------|x13 C|-----|    C|--------------| x3 play as last note of guitar 2 rings
G|--------------|    G|-----|    G|--------------| 
D|--------------|    D|-----|    D|--------------| 
A|--------------|    A|-----|    A|--------------| 


[Verse 1] 

(come in at 01:34):

A|-------------------------------------------|-----------------------------------------------|
E|-------------------------------------------|-----------------------------------------------|
C|-------------------------------------------|-----------------------------------------------|
G|-------------------------------------------|-------------------------------------------8p7-|
D|-----------------------------------------6-|---------------------------------------3h5-----|
A|--0-0--0--0x-0-0-0--0x-0-0-0--0x-0-0-0-4---|--0-0--0--0x-0-0-0--0x-0-0-0--0x-0-0-0---------|
                                                                                     - - 
A|---------------------------|------------------------------|
E|---------------------------|------------------------------|
C|---------------------------|------------------------------|
G|--6--6--6-6-6--6--6--6-6-6-|--8--8--8-8-8--8--8--8-8-8----|
D|--4--4--4-4-4--4--4--4-4-4-|--6--6--6-6-6--6--6--6-6-6----|
A|---------------------------|------------------------------|
    -  -  - - -  -  -  - - -    -  -  - - -  -  -  - - - 

A|---------------------------|-------------------|
E|---------------------------|-------------------|
C|---------------------------|-------------------|
G|--6--6--6-6-6--6--6--6-6-6-|--8-8-8-8--8-8-8-8-|
D|--4--4--4-4-4--4--4--4-4-4-|--6-6-6-6--6-6-6-6-|
A|---------------------------|--0-0-0-0----------|
    -  -  - - -  -  -  - - -

Repeat whole chorus (01:49)


[Bridge part 1] 

(02:19)

A|---------------------|-----------------|-------------------------------|---------|
E|---------------------|-----------------|-------------------------------|---------|
C|---------------------|-----------------|-------------------------------|---------|
G|---------------------|-----------------|-------------------------------|---------|
D|-1-1-1-4-1-1-1-1-4-1-|-1-1-2-1-1-2-4-2-|-2-2-2-5-2-2-2-2-5-2-2-2-2-5-2-|-2-2-2-2-|
A|-1-1-1-4-1-1-1-1-4-1-|-1-1-2-1-1-2-4-2-|-2-2-2-5-2-2-2-2-5-2-2-2-2-5-2-|-2-2-2-2-|
   - - - - - - - - - -   - - - - - - - -   - - - - - - - - - - - - - - -   - - - - 

A|-----------------------------------------------------|
E|-----------------------------------------------------|
C|-----------------------------------------------------|
G|-----------------------------------------------------|
D|-----------------------------------------3-3-3-3-3-3-|
A|--0--0-0--0-3--0--0-0--0-3--0--0-0--0-3--1-1-1-1-1-1-|

A|-----------------------------------------------------|
E|-----------------------------------------------------|
C|-----------------------------------------------------|
G|-----------------------------------------------------|
D|-----------------------------------------4-4-4-4-4-4-|
A|--1--1-1--1-2--1--1-1--1-2--1--1-1--1-2--2-2-2-2-2-2-|

[Bridge part 2] 

(02:34):

Guitar 1:
A|-------------------------------------------|
E|-------------------------------------------|
C|-------------------------------------------|
G|--------------11---6-----------------------|
D|--3---6---5---9----4---6---5--5-5-5--5-5-4-|
A|--1---4---3------------4---3--3-3-3--3-3-2-|
                                - - -  - - - 

A|---------------------------------------------------------------------------------------|
E|---------------------------------------------------------------------------------------|
C|---------------------------------------------------------------------------------------|
G|---------------------------------------------------------------------------------------|
D|---------------------------------------------------------------------------------------|
A|--1-1-1-1--1--1-1--1-1--1--1-1-1-1--1--1-1-1-1--1--1-1-1-1--1--1-1--1-1--1--1-1-1-1--1-|
    - - - -  -  - -  - -  -  - - - -  -  - - - -  -  - - - -  -  - -  - -  -  - - - -  -

A|-----------------------------------------------------|
E|-----------------------------------------------------|
C|-----------------------------------------------------|
G|--6-6-6-6--6--6-6-6-6--6--6-6--6-6--6--5-5-5-5--5----|
D|--4-4-4-4--4--4-4-4-4--4--4-4--4-4--4--3-3-3-3--3----|
A|-----------------------------------------------------|
    - - - -  -  - - - -  -  - -  - -  -  - - - -  -

A|----------------------------------------|
E|----------------------------------------|
C|----------------------------------------|
G|----------------------------------------|
D|--4-4--4-4--4--4-4--4-4--4--4-4-4-4-4-4-|
A|--2-2--2-2--2--2-2--2-2--2--2-2-2-2-2-2-|
    - -  - -  -  - -  - -  -

Guitar 2:
A|--13--16--15--21--20--16h18-16--16--15-|------------------16h18-16-----| Sustain the notes
E|---------------------------------------|--6--9--8--14--13----------8*--|
C|---------------------------------------|-------------------------------|
G|---------------------------------------|-------------------------------|
D|---------------------------------------|-------------------------------|
A|---------------------------------------|-------------------------------|

Guitar 3:
A|---------------------16h18-16------| Starts at second bar of guitar 2 (acts as a harmony)
E|-----------------------------------| 
C|--10--13--12--18--17----------12*--|
G|-----------------------------------|
D|-----------------------------------|
A|-----------------------------------|

Repeat whole chorus (03:07)


[Outro] 

(03:37):

A|----------------------------------------------------------------------|
E|----------------------------------------------------------------------|
C|----------------------------------------------------------------------|
G|----------------------------------------------------------------------|
D|--------3-3-3-------3-3-3-3-3-3-3-3-------3-3-3-------3-3-3-3-3-3-3-3-|
A|--1-1-1-1-1-1-1-1-1-1-1-1-1-1-1-1-1-1-1-1-1-1-1-1-1-1-1-1-1-1-1-1-1-1-|
    - - -       - - -                 - - -       - - - 

A|---------------------------------------|-----------------------------------------------------------|
E|---------------------------------------|-----------------------------------------------------------|
C|---------------------------------------|-----------------------------------------------------------|
G|--6-6-6--6-6--6-6-6--6-6--6-6-6--6-6---|-----------------------------------------------------------|
D|--4-4-4--4-4--4-4-4--4-4--4-4-4--4-4---|--8-8-8--8-8--8-8-8--8-8--10-10-10--10-10--10-10-10--10-10-|
A|---------------------------------------|--6-6-6--6-6--6-6-6--6-6--8--8--8---8--8---8--8--8---8--8--|
    - - -       - - -       - - -           - - -       - - -       -  -  -          -  -  -   

A|----------------------------------------------------|----------------------------------------------------|
E|----------------------------------------------------|----------------------------------------------------|
C|----------------------------------------------------|----------------------------------------------------|
G|----------------------------------------------------|----------------------------------------------------|
D|--------------------------------------------3-3-3-3-|--------------------------------------------3-3-3-3-|
A|--0--0x-0-0-0-3--0-0x-0-0-0-3--0-0x-0-0-0-3-1-1-1-1-|--1-1x-1-1-1-4--1-1x-1-1-1-4--1-1x-1-1-1-4--1-1-1-1-|

A|-------------------------|
E|-------------------------|
C|-------------------------|
G|--5-5-5--5-6--5-5-5--5-6-|
D|--3-3-3--3-4--3-3-3--3-4-|
A|-------------------------|
    - - -       - - -            
Submit corrections

↑ Back to top | Tablatures and chords for acoustic guitar and electric guitar, ukulele, drums are parodies/interpretations of the original songs. You may use it for private study, scholarship, research or language learning purposes only