Home » D » Delain »

Delain - Go Away Tabs

Artists:  A B C D E F G H I J K L M N O P Q R S T U V W X Y Z # 

Go Away Tabs

(ver. 1) Click to play this song!
Delain
Intro
 
E||--5--5--5--5---5--5--5---5--5--|---5--5--5--5---6--6--6--3-|
B||--6--6--6--5---5--5--6---6--6--|---6--5--5--6---6--6--6--3-|
G||--7--7--7--7---7--7--7---7--7--|---7--7--7--7---7--7--7--4-|
D||--7--7--7--7---7--7--7---7--7--|---7--7--7--7---8--8--8--5-|
A||--5--5--5--5---5--5--5---5--5--|---5--5--5--5---8--8--8--5-|
E||-------------------------------|----------------6--6--6--3-|
 
--3--3--3---------|--5--5--5--5---5--5--5---5--5--|
--3--3--3---------|--6--6--6--5---5--5--6---6--6--|
--4--4--4---------|--7--7--7--7---7--7--7---7--7--|
--5--5--5---------|--7--7--7--7---7--7--7---7--7--|
--5--5--5---------|--5--5--5--5---5--5--5---5--5--|
--3--3--3---------|-------------------------------|
 
---5--5--5--5---5--5--5--5----|--5--5--5---5--5--5--5-------|
---6--5--5--6---5--5--5--5----|--5--5--5---5--5--5--5-------|
---7--7--7--7---6--6--6--6----|--6--6--6---7--7--7--7-------|
---7--7--7--7---7--7--7--7----|--7--7--7---5--5--5--5-------|
---5--5--5--5---7--7--7--7----|--7--7--7---7--7--7--7-------|
----------------5--5--5--5----|--5--5--5---5--5--5--5-------|

Verse 1
----------------------------------|-------------------------------3--|
--------1-----0h-1--------------1-|-------0h-1--------------3--------|
----------------------------------|----------------------0-----0-----|
-----2--------------2--------2----|-------------2--------------------|
--0-----------------------0-------|----------------------------------|
----------------------------------|-------------------3--------------|


  
-----------------------3----------|
--3--------------3--------3-------|
-----0--------0-----0--------0----|
----------------------------------|
----------------------------------|
-----------3----------------------|

 
------------0--0--0--5--5--5----|
--1--1--1---0--0--0--5--5--5----|
--0--0--0---1--1--1--6--6--6----|
--2--2--2---2--2--2--7--7--7----|
--3--3--3---2--2--2--7--7--7----|
------------0--0--0--5--5--5----|

-----------------------------|----1--1--1--1----------------|
--8--8--8--7----3--3--3--3---|------------------1--1--1-----|
--7--7--7--7----3--3--3--3---|----5--5--5--5----2--2--2--4--|
--5--5--5--5----3--3--3--3---|----3--3--3--3----2--2--2--6--|
----------------1--1--1--1---|------------------0--0--0--7--|
-----------------------------|----1--1--1--1-------------4--|

  
-----------------------------|
-----------------------------|
--4--4--4--4--4--4-----------|
--6--6--6--6--6--6-----------|
--7--7--7--7--7--7-----------|
--4--4--4--4--4--4-----------|


Chours

--------------------------1--1--1-|
--1--1--1--1--1--1--1--1--1--1--1-|
--2--2--2--2--2--2--2--2--2--2--2-|
--2--2--2--2--2--2--2--2--3--3--3-|
--0--0--0--0--0--0--0--0--3--3--3-|
--------------------------1--1--1-|

 
---1--1--1--1--1--3--3--3--3--3---|--3--3--3--0--0--0--0--0--0--0--0-|
---1--1--1--1--1--3--3--3--3--3---|--3--3--3--0--0--0--0--0--0--0--0-|
---2--2--2--2--2--4--4--4--4--4---|--4--4--4--1--1--1--1--1--1--1--1-|
---3--3--3--3--3--5--5--5--5--5---|--5--5--5--2--2--2--2--2--2--2--2-|
---3--3--3--3--3--5--5--5--5--5---|--5--5--5--2--2--2--2--2--2--2--2-|
---1--1--1--1--1--3--3--3--3--3---|--3--3--3--0--0--0--0--0--0--0--0-|


  
---1--1--1--1--1--1--1--1--5--5--5-|---5--5--5--5--5--0--0--0--0--0--|
---1--1--1--1--1--1--1--1--5--5--5-|---5--5--5--5--5--0--0--0--0--0--|
---2--2--2--2--2--2--2--2--7--7--7-|---7--7--7--7--7--1--1--1--1--1--|
---3--3--3--3--3--3--3--3--7--7--7-|---7--7--7--7--7--2--2--2--2--2--|
---3--3--3--3--3--3--3--3--5--5--5-|---5--5--5--5--5--2--2--2--2--2--|
---1--1--1--1--1--1--1--1----------|------------------0--0--0--0--0--|


 
--0--0--0-------------------------|--------------------------1--1--1-|
--0--0--0-------------------------|--1--1--1--1--1--1--1--1--1--1--1-|
--1--1--1--4--4--4--4--4--4--4--4-|--2--2--2--2--2--2--2--2--2--2--2-|
--2--2--2--6--6--6--6--6--6--6--6-|--2--2--2--2--2--2--2--2--3--3--3-|
--2--2--2--7--7--7--7--7--7--7--7-|--0--0--0--0--0--0--0--0--3--3--3-|
--0--0--0--4--4--4--4--4--4--4--4-|--------------------------1--1--1-|


    
---1--1--1--1--1--3--3--3--3--3---|--3--3--3--0--0--0--0--0--0--0--0-|
---1--1--1--1--1--3--3--3--3--3---|--3--3--3--0--0--0--0--0--0--0--0-|
---2--2--2--2--2--4--4--4--4--4---|--4--4--4--1--1--1--1--1--1--1--1-|
---3--3--3--3--3--5--5--5--5--5---|--5--5--5--2--2--2--2--2--2--2--2-|
---3--3--3--3--3--5--5--5--5--5---|--5--5--5--2--2--2--2--2--2--2--2-|
---1--1--1--1--1--3--3--3--3--3---|--3--3--3--0--0--0--0--0--0--0--0-|


   
---1--1--1--1--1--1--1--1--5--5--5-|---5--5--5--5--5--0--0--0--0--0--|--0--0--0--|
---1--1--1--1--1--1--1--1--5--5--5-|---5--5--5--5--5--0--0--0--0--0--|--0--0--0--|
---2--2--2--2--2--2--2--2--7--7--7-|---7--7--7--7--7--1--1--1--1--1--|--1--1--1--|
---3--3--3--3--3--3--3--3--7--7--7-|---7--7--7--7--7--2--2--2--2--2--|--2--2--2--|
---3--3--3--3--3--3--3--3--5--5--5-|---5--5--5--5--5--2--2--2--2--2--|--2--2--2--|
---1--1--1--1--1--1--1--1----------|------------------0--0--0--0--0--|--0--0--0--|


Breakdown 
-------------------------|------------------------------------|
-------------------------|------------------------------------|
-------------------------|------------------------------------|
-------------------------|----2--2--2-------------------------|
--0--0--0--0--0--0--0--0-|----0--0--0--0--0--0--0--0--0--0--0-|
-------------------------|------------------------------------|


        
----------------------------||
----------------------------||
----------------------------||
----5--5--5--5--3--3--3--3--||
----3--3--3--3--1--1--1--1--||
----------------------------||
            
Submit corrections

↑ Back to top | Tablatures and chords for acoustic guitar and electric guitar, ukulele, drums are parodies/interpretations of the original songs. You may use it for private study, scholarship, research or language learning purposes only