Home » D » Delain »

Delain - Army Of Dolls Tabs

Artists:  A B C D E F G H I J K L M N O P Q R S T U V W X Y Z # 

Army Of Dolls Tabs

(ver. 1) Click to play this song!
Delain
D-----------------------------------------------------------------|
A-7GS10-----------------------------------------------------------|
F-------12-12h14p12\11--7--8--7-5-7-------------------------------|
C-----------------------------------7--8--7-5-7-------------------|
G------------------------------------------------5--6--5-4-5------|
D-----------------------------------------------------------------|
A-----------------------------------------------------------------|


D---------------------------------------17-18--17-15-17--|
A-7GS10----------------15--16--15-13-15------------------|
F-------12-12h14p12\11-----------------------------------|
C--------------------------------------------------------|
G--------------------------------------------------------|
D--------------------------------------------------------|
A--------------------------------------------------------|

  <-------fast-----------------------------------------|gt;
D-------------17-18-20-22~~--22B24------------------------|
A-------15-17---------------------------------------------|
F-17-19---------------------------------------------------|
C---------------------------------------------------------|
G---------------------------------------------------------|
D---------------------------------------------------------|
A---------------------------------------------------------|
            
Submit corrections

↑ Back to top | Tablatures and chords for acoustic guitar and electric guitar, ukulele, drums are parodies/interpretations of the original songs. You may use it for private study, scholarship, research or language learning purposes only