» » »

Deer Tick - The Great Smoke Off Tabs

Artists:  A B C D E F G H I J K L M N O P Q R S T U V W X Y Z # 

The Great Smoke Off Tabs

(ver. 1) Click to play this song!
Deer Tick
 Rating:
2.9/5 (21 vote)

 The Great Smoke Off  lessons Tabs too difficult? Try these video lessons and learn fast
 
                Tuning: EADGBE

                         D

e|-------2---3---5---|---5-----------7---5---------------|
B|-------3-----------|-----------------------7---5-------|
G|-------2-----------|---------7---------------------7---|
D|---0---------------|-------7-------7-------7-------7---|
A|-------------------|---5-------5-------5-------5-------|
E|-------------------|-----------------------------------|

     G                                   A

e|-----------------------------------|-------------------3-----2---0-----|
B|---------3-----5p3-----------3-----|---------2-------------------------|
G|---4---------4-------4-------------|-------------2---------------------|
D|-----------------------------------|-------2-------2-------2-------2---|
A|-------5-------5-------5---------7-|---0-------0-------0-------0-------|
E|---3-------3-----------------------|-----------------------------------|

     G                  D               

e|--------------------------------------|-------------------|
B|--------------------------------------|-------------------|
G|---7-----------7----------7-------7---|-------7-------7---|
D|--------7-7-h9------7-----7---------7-|-------7---------7-|
A|---10-------10---10---5-------0-------|---5-------0-------|
E|--------------------------------------|-------------------|            
Submit corrections


        The Great Smoke Off  lessons Hard to play? Try these video lessons and learn fast The Great Smoke Off  lessons
        
↑ Back to top | Tablatures and chords for acoustic guitar and electric guitar, ukulele, drums are parodies/interpretations of the original songs. You may use it for private study, scholarship, research or language learning purposes only