» » »

Deer Tick - Cake And Eggs Tabs

Artists:  A B C D E F G H I J K L M N O P Q R S T U V W X Y Z # 

Cake And Eggs Tabs

(ver. 1) Click to play this song!
Deer Tick
 Rating:
4/5 (4 votes)

 Cake And Eggs lessons Tabs too difficult? Try these video lessons and learn fast
 
                (Intro)
                                     Deer Tick
                                   Cake and Eggs

Standard Tuning

Acoustic (E A D G B e)

e|-------0--------0----------0--------0------|
B|-------------------1-------------------1---|
G|-------------------------------------------| 2x
D|-----2-------2-----------2-------2---------|
A|--3-------------------3--------------------|
E|----------3-------------------3------------|

e|--0h3---3-----0h3---3-----3--3--0-----------------------------------|
B|-----------------------------------3--1--------1------1--1-3-1------|
G|-------------------------------------------0h2---2-------------2----|
D|-----2-----2-----2-----2-----2-----2-----3---------3--3--3-------3--|
A|--3-----3-----3-----3-----3-----3-----3-----------------------------|
E|--------------------------------------------------------------------|

e|-----------------------------------0-------0----------0--------0-----|
B|----------------------------------------------1-------------------1--|
G|--0--0-2-0-----------------------------------------------------------|
D|-----------2----0--0-2-0---------2------2-----------2-------2--------|
A|--3--3-------3-----------2----3------------------3-------------------|
E|----------------3--3-------3---------3-------------------3-----------|
            
Submit corrections


        Cake And Eggs lessons Hard to play? Try these video lessons and learn fast Cake And Eggs lessons
        
↑ Back to top | Tablatures and chords for acoustic guitar and electric guitar, ukulele, drums are parodies/interpretations of the original songs. You may use it for private study, scholarship, research or language learning purposes only