» » »

Deerhunter - Twilight At Carbon Lake Tabs

Artists:  A B C D E F G H I J K L M N O P Q R S T U V W X Y Z # 

Twilight At Carbon Lake Tabs

(ver. 1) Click to play this song!
Deerhunter
 Rating:
4.2/5 (5 votes)

 Twilight At Carbon Lake lessons Tabs too difficult? Try these video lessons and learn fast
 
                Twilight At Carbon Lake by Deerhunter from the album Microcastle
Standard Tuning
140 bpm
3/4 time


Verses Part 1:
e||--------------------|--------------------|-------------------|--------------------|
B||--------------------|--13----------------|-------------------|--10----------------|
G||--------------13----|--------13----------|-------------10----|--------10----------|
D||--------13----------|--------------13----|-------10----------|--------------10----|
A||--11----------------|--------------------|--8----------------|--------------------|
E||--------------------|--------------------|-------------------|--------------------|


Verses Part 2:
e||-----------------|-----------------|-----------------|-----------------|
B||-----------------|--6--------------|-----------------|--8--------------|
G||------------6----|-------6---------|------------8----|-------8---------|
D||-------6---------|------------6----|-------8---------|------------8----|
A||--4--------------|-----------------|--6--------------|-----------------|
E||-----------------|-----------------|-----------------|-----------------|


Chorus Part 1:
e||--------------------|--------------------|--------------------|--------------------|
B||--13----13----13----|--13----13----13----|--10----10----10----|--10----10----10----|
G||--13----13----13----|--13----13----13----|--10----10----10----|--10----10----10----|
D||--13----13----13----|--13----13----13----|--10----10----10----|--10----10----10----|
A||--11----11----11----|--11----11----11----|---8-----8-----8----|---8-----8-----8----|
E||--------------------|--------------------|--------------------|--------------------|


Chorus Part 2:
e||-----------------|-----------------|-----------------|-----------------|
B||--6----6----6----|--6----6----6----|--8----8----8----|--8----8----8----|
G||--6----6----6----|--6----6----6----|--8----8----8----|--8----8----8----|
D||--6----6----6----|--6----6----6----|--8----8----8----|--8----8----8----|
A||--4----4----4----|--4----4----4----|--6----6----6----|--6----6----6----|
E||-----------------|-----------------|-----------------|-----------------|





At about 0:52 in, if you listen to only the left side of the song, 
there is an additional guitar which plays something like this

E||----------------|----------------|---------------|----------------|
B||----------------|----------------|---------------|----------------|
G||--13b-----------|--11b-----------|--8b-----------|--10b-----------|
D||----------------|----------------|---------------|----------------|
A||----------------|----------------|---------------|----------------|
E||----------------|----------------|---------------|----------------|

It lasts through the verse and chorus, and stops around 2:15. 
At 2:40 the left ear guitar starts again, 
but it plays the "4-6-6-6" arpeggios as seen in the verses.
            
Submit corrections


        Twilight At Carbon Lake lessons Hard to play? Try these video lessons and learn fast Twilight At Carbon Lake lessons
        
↑ Back to top | Tablatures and chords for acoustic guitar and electric guitar, ukulele, drums are parodies/interpretations of the original songs. You may use it for private study, scholarship, research or language learning purposes only