» » »

Deerhunter - The Missing Tabs

Artists:  A B C D E F G H I J K L M N O P Q R S T U V W X Y Z # 

The Missing Tabs

(ver. 1) Click to play this song!
Deerhunter
 Rating:
3.1/5 (26 votes)

 The Missing  lessons Tabs too difficult? Try these video lessons and learn fast
 
                Tuning: Standard

Intro

e|----------------|
B|----7-----------|
G|--9-------------| Repeat Several Times
D|----------------|
A|----------------|
E|----------------|

e|-------------------|
B|-11-12-9--12-11-9--|
G|-------------------| x12
D|-------------------|
A|-------------------|
E|-------------------|

Chorus

e|--4--6--2--1--0--2-|
B|--4--7--2--2--0--3-|
G|--4--8--3--1--1--3-| x2
D|--6--8--4--3--2--3-|
A|--6--6--4--4--2--2-|
E|--4-----2-----0----|

e|--4-|
B|--4-|
G|--4-| On the 2nd time
D|--6-|
A|--6-|
E|--4-|

Verse

e|----------------|
B|--7-------------|
G|---9------------| Repeat Several Times
D|----------------|
A|----------------|
E|----------------|

Chorus

e|--4--6--2--1--0--2-|
B|--4--7--2--2--0--3-|
G|--4--8--3--1--1--3-| x2
D|--6--8--4--3--2--3-|
A|--6--6--4--4--2--2-|
E|--4-----2-----0----|

e|--0--2--0--4--0--2--0--2--0--4-|
B|--0--3--0--4--0--3--0--3--0--4-|
G|--1--3--1--4--1--3--1--3--1--4-|
D|--2--3--2--6--2--3--2--3--2--6-|
A|--2--2--2--6--2--2--2--2--2--6-|
E|--0-----0--4--0-----0-----0--4-|

Bridge

e|-----------------------------------------------------|
B|--------------------12-12----------------11----11----|
G|--11-11-11-11-11-11-------13-13-13-13-13----13----13-| x2
D|-----------------------------------------------------|
A|-----------------------------------------------------|
E|-----------------------------------------------------|

e|---------------------------------------------------------------------------------|
B|---------------------------------------------------------------------------------|
G|--11-11-11-11-11-11-11-11-12-12-12-12-12-12-12-12-12b-12b-12b-12b-12b-12b-12b-12b|
D|---------------------------------------------------------------------------------|
A|---------------------------------------------------------------------------------|
E|---------------------------------------------------------------------------------|

e|-----------------------------------------------------|
B|--------------------12-12----------------11----11----|
G|--11-11-11-11-11-11-------13-13-13-13-13----13----13-| x2
D|-----------------------------------------------------|
A|-----------------------------------------------------|
E|-----------------------------------------------------|

Outro

e|-----9----------|
B|--12------------|
G|----------------| x54
D|----------------|
A|----------------|
E|----------------|
            
Submit corrections


        The Missing  lessons Hard to play? Try these video lessons and learn fast The Missing  lessons
        
↑ Back to top | Tablatures and chords for acoustic guitar and electric guitar, ukulele, drums are parodies/interpretations of the original songs. You may use it for private study, scholarship, research or language learning purposes only