» » »

Deerhunter - Take Care Tabs

Artists:  A B C D E F G H I J K L M N O P Q R S T U V W X Y Z # 

Take Care Tabs

(ver. 1) Click to play this song!
Deerhunter
 Rating:
4.1/5 (21 vote)

 Take Care  lessons Tabs too difficult? Try these video lessons and learn fast
 
                Tuning: Standard

2:54

e|-------9-----|--11--13-11--9--|-------9--|----------|
B|--11-----11--|----------------|--11------|--11---9--|
G|-------------|----------------|----------|----------|
D|-------------|----------------|----------|----------|
A|-------------|----------------|----------|----------|
E|-------------|----------------|----------|----------|

e|-------9--|---------------|-----------|-----------------|
B|----------|--11---9-------|-----------|-----------------|
G|--11------|---------11-9--|--8---6-8--|--10--11-10-8-6--|
D|----------|---------------|-----------|-----------------|
A|----------|---------------|-----------|-----------------|
E|----------|---------------|-----------|-----------------|            
Submit corrections


        Take Care  lessons Hard to play? Try these video lessons and learn fast Take Care  lessons
        
↑ Back to top | Tablatures and chords for acoustic guitar and electric guitar, ukulele, drums are parodies/interpretations of the original songs. You may use it for private study, scholarship, research or language learning purposes only