» » »

Deerhunter - Spring Hall Convert Bass

Artists:  A B C D E F G H I J K L M N O P Q R S T U V W X Y Z # 

Spring Hall Convert Bass

(ver. 1) Click to play this song!
Deerhunter
 Rating:
3.8/5 (25 votes)

 Spring Hall Convert lessons Tabs too difficult? Try these video lessons and learn fast
 
                Intro
G|------------------------|------------------------|------------------------|
D|------------------------|------------------------|------------------------|
A|7-------5---------------|7-------5------10-------|7-------5---------------|
E|----------------3-------|------------------------|----------------3-------|

0:32
G|---------------------------------------------|
D|---------------------------------------------|
A|7(x8)--5(x8)--10(x16)--7(x8)--5(x8)----------|
E|-------------------------------------3(x16)--|

G|------------------------------------------------------------------------------|
D|------------------------------------------------------------------------------|
A|7(x8)--5(x8)--10(x16)--7(x8)--5(x7)-10-7-10---10-7-10---10-7-10---10-7-10---10|
E|------------------------------------------------------------------------------|

1:08
G|-------------------------------------------------------|
D|-------------------------------------------------------|
A|7(x8)--5(x7)-10-7-10---10-7-10---10-7-10---10-7-10---10|
E|-------------------------------------------------------|x4

1:42
G|---------------------------|
D|---------------------------|
A|-------3(x8)--------5(x8)--|
E|3(x8)---------5(x8)--------|x4

2:16
G|--------------------------------------|
D|--------------------------------------|
A|-------3(x8)--4---4---4---4----5(x8)--|
E|3(x8)-----------5---5---5---5---------| played until end of song then end on G.            
Submit corrections


        Spring Hall Convert lessons Hard to play? Try these video lessons and learn fast Spring Hall Convert lessons
        
↑ Back to top | Tablatures and chords for acoustic guitar and electric guitar, ukulele, drums are parodies/interpretations of the original songs. You may use it for private study, scholarship, research or language learning purposes only