» » »

Deerhunter - Revival Bass

Artists:  A B C D E F G H I J K L M N O P Q R S T U V W X Y Z # 

Revival Bass

(ver. 1) Click to play this song!
Deerhunter
 Rating:
4/5 (4 votes)

 Revival lessons Tabs too difficult? Try these video lessons and learn fast
 
                -------------------------------------
Revival - Deerhunter (Halcyon Digest)
-------------------------------------

Tuning: Standard (EADG)

Intro (0:00-0:16)
G|-----------------------------------------------------------------|
D|----66------66-6--------------------66------66-6-----------------|
A|-4-----4-4----4-42--22421------2-4-----4-4----4-42--2242-------2-|
E|-------------------------4--44---------------------------4--44---|

Verse (0:16-0:32)
G|----------------------------------------------------------------|
D|--------------6--------------------66------66-6-----------------|
A|-4--44-4-4--44-4-2--22421------2-4----4-4----4-42--22421--------|
E|----------------4--------4--44--------------------------4--44-4-|

Chorus (0:32-0:48)
G|------------------------------------------------------------------|
D|------------------------------------------------------------------|
A|-----------------22222222------------------------22222222---------|
E|-2222222200000000--------444444442222222200000000--------44444444-|

Verse II (0:48-1:04)
G|-----------------------------------------------------------------|
D|----66------66-6--------------------66------66-6-----------------|
A|-4-----4-4----4-42--22421------2-4-----4-4----4-42--2242---------|
E|-------------------------4--44---------------------------4--44-4-|

Chorus (1:04-1:21)

Rest (1:21-1:37)

Instrumental (1:37-1:53)
G|---------------------------------------------------------|
D|----66------66-6--------------------66------66-6---------|
A|-4-----4-4----4-42--22421------2-4-----4-4----4-42--2242-|
E|-------------------------4--44---------------------------|
  * note the early stop

Chorus (1:53-2:13)
            
Submit corrections


        Revival lessons Hard to play? Try these video lessons and learn fast Revival lessons
        
↑ Back to top | Tablatures and chords for acoustic guitar and electric guitar, ukulele, drums are parodies/interpretations of the original songs. You may use it for private study, scholarship, research or language learning purposes only