» » »

Deerhunter - Never Stops Bass

Artists:  A B C D E F G H I J K L M N O P Q R S T U V W X Y Z # 

Never Stops Bass

(ver. 1) Click to play this song!
Deerhunter
 Rating:
3.3/5 (6 votes)

 Never Stops lessons Tabs too difficult? Try these video lessons and learn fast
 
                Artist - Deerhunter
Song - Never Stops
Album - Microcastle

correction should be.

This is an updated version, I saw Deerhunter live at the Capitol Hill Block
Party and this is what the bassist was playing.

Verse (0:01)
G|--------------------------------------|
D|--------------------------------------|
A|-----5-5-----5-5------3-3-----3-3-----|
E|-5-5-----5-5------3-3-----3-3---------|
Repeat through (1:04)


Chorus (1:04) x2
G|--------------------------------------|
D|--------------------------------------|
A|-----------------3-3-3-3-3-3-1-3------|
E|-3-3-3-3-3-3-3-3----------------------|  x2

G|--------------------------------------|
D|--------------------------------------|
A|--------------------------------------|
E|-0-0-0-0-0-0-0-0-5-5-5-5-5-5-5-5------|


Verse (1:29) x3
then
G|--------------------------------------|
D|--------------------------------------|
A|-----5-5-----5-5----------------------|
E|-5-5-----5-5-----3--------------------|


Bridge (1:45)
G|--------------------------------------|
D|--------------------------------------|
A|-----------------7-7-7-7-7-5-7-5------|
E|-3-3-3-3-3-3-3-3----------------------|

G|--------------------------------------|
D|--------------------------------------|
A|-----------------7-7-7-7-7-7-7-7------|
E|-3-3-3-3-3-3-3-3----------------------|

G|--------------------------------------|
D|--------------------------------------|
A|-----------------7-7-7-7-7-5-7-5------|
E|-3-3-3-3-3-3-3-3----------------------| x6


Chrous/Outro (2:18) x3


End on E|-3~---
            
Submit corrections


        Never Stops lessons Hard to play? Try these video lessons and learn fast Never Stops lessons
        
↑ Back to top | Tablatures and chords for acoustic guitar and electric guitar, ukulele, drums are parodies/interpretations of the original songs. You may use it for private study, scholarship, research or language learning purposes only