» » »

Deerhunter - Desire Lines Bass

Artists:  A B C D E F G H I J K L M N O P Q R S T U V W X Y Z # 

Desire Lines Bass

(ver. 1) Click to play this song!
Deerhunter
 Rating:
4/5 (4 votes)

 Desire Lines lessons Tabs too difficult? Try these video lessons and learn fast
 
                ------------------------------------------
------------------------------------------

Tuning: Standard (EADG)

Intro & Verse (0:00-1:05)
G|------------------------------------------------------------------|
D|------------------------------------------------------------------|
A|---------77777777--------77777777--------7777777755555555---------|
E|-33333333--------33333333--------33333333----------------55555555-|


Chorus (1:05-1:38)
G|----------------------------------|
D|----------------------------------|
A|-33333333--------55555555---------|
E|---------33333333--------55555555-|

                Chorus (with optional fills)
                G|----------------------------------|
                D|--------5---------------7---------|
                A|-3333333--3------5555555--5-------|
                E|-----------333333----------555555-|           <<< he does this live
                

Intro & Verse (1:45-1:54); enter softly
G|-------------------------------------|
D|-------------------------------------|
A|----------77777777-55555555----------|
E|-33333333-------------------55555555-|

Intro & Verse II (1:54-2:26)
G|------------------------------------------------------------------|
D|------------------------------------------------------------------|
A|--------577777777-------577777777-------57777777755555555---------|
E|-3333333---------3333333---------3333333-----------------55555555-|


Repeat Chorus (2:26-2:58)


Jam (2:58-3:17)
G|------------------------------------------|
D|------------------------------------------|
A|---------55555555--------7777777733333333-|
E|-33333333--------55555555-----------------|

G|------------------------------------------|
D|------------------------------------------|
A|---------55555555--------7777777733333053-|
E|-33333333--------55555555-----------------|

Jam II (3:17-4:25)
G|------------------------------------------|
D|-----------4---4-----------6---6---2---2--|
A|---5---5-55---5-5--4---4-77---7-733---3-3-|
E|-33---3-3--------55---5-5-----------------|

Jam III (4:25-6:44)
G|------------------------------------------|
D|-----------4--44-----------6--6----2--22--|
A|---5---5-55-55--5--4---4-77-77--733-33--3-|
E|-33-333-3--------55-555-5-----------------|
            
Submit corrections


        Desire Lines lessons Hard to play? Try these video lessons and learn fast Desire Lines lessons
        
↑ Back to top | Tablatures and chords for acoustic guitar and electric guitar, ukulele, drums are parodies/interpretations of the original songs. You may use it for private study, scholarship, research or language learning purposes only