» » »

Deerhunter - Cryptograms Bass

Artists:  A B C D E F G H I J K L M N O P Q R S T U V W X Y Z # 

Cryptograms Bass

(ver. 1) Click to play this song!
Deerhunter
 Rating:
4/5 (4 votes)

 Cryptograms lessons Tabs too difficult? Try these video lessons and learn fast
 
                Cryptograms (Bass tab)
Deerhunter

Verse 1 (0:00-0:24)
G|-----|
D|-----|
A|-----|
E|--8--|
*The bass repeats this note throughout the
first verse (probably with a delay pedal)*

Break 1/Verse 2 (0:24-1:15)
G|---------------------------------|---------------------------------|
D|---------------------------------|---------------------------------| x8
A|-------10-------------10---------|---------------------------------|
E|-6h8-8----8p6h8----------8p6-6h8-|-6h8-6h8-6h8-6h8-6h8-6h8-6h8-6h8-|

Bridge (1:15-1:41)
G|---------------------------------|---------------------------------|
D|-------8---------------8---------|---------------------------------| x4
A|---------8p6h8-8-8-8-8---8p6-6h8-|-8p6-----------------------------|
E|-6h8-----------------------------|-----8-8-8-8-8-8-8-8-8-8-8-8-8-8-|

Break 2/Verse 3 (1:41-2:32)
G|---------------------------------|---------------------------------|
D|---------------------------------|---------------------------------| x8
A|-------10-------------10---------|---------------------------------|
E|-6h8-8----8p6h8----------8p6-6h8-|-6h8-6h8-6h8-6h8-6h8-6h8-6h8-6h8-|

Outro

*The bass is hard to hear during the outro,
so this is just an approximation of what's actually being played*

(2:32-2:58)
G|---------------------------------|---------------------------------|
D|-------8---------------8---------|---------------------------------| x4
A|---------8p6h8-8-8-8-8---8p6-6h8-|-8p6-----------------------------|
E|-6h8-----------------------------|-----8-8-8-8-8-8-8-8-8-8-8-8-8-8-|

(2:58-3:24)
G|-----------------------------------|---------------------------------|
D|-----------------8-8-8-7-7-7-7-7-7-|---------------------------------| x4
A|-----------------------------------|---------------------------------|
E|-6-6-6-6-6-6-6-6-------------------|-8-8-8-6h8-8-8-8-8-6h8-8-8-8-8-8-|

(3:24-3:43)
G|-----------------------------------|---------------------------------|
D|-----------------------------------|---------------------------------| x3
A|-----------------------------------|---------------------------------|
E|-6-6-6-6-6-6-6-6-6-6-6-6-6-6-6-6-6-|-8-8-8-8-8-8-8-8-8-8-8-8-8-8-8-8-|

(3:43-end)
G|-----------------------------------|---------------------------------|
D|-----------------------------------|---------------------------------|
A|-----------------------------------|---------------------------------|
E|-6-6-6-6-6-6-6-6-6-6-6-6-6-6-6-6-6-|-8-------------------------------|
                                       *This note repeats at the end of the song,
                                        just like it did in the first verse*


And that's it! Leave any comments or questions if you have any.
            
Submit corrections


        Cryptograms lessons Hard to play? Try these video lessons and learn fast Cryptograms lessons
        
↑ Back to top | Tablatures and chords for acoustic guitar and electric guitar, ukulele, drums are parodies/interpretations of the original songs. You may use it for private study, scholarship, research or language learning purposes only