» » »

Deerhunter - Breaker Tabs

Artists:  A B C D E F G H I J K L M N O P Q R S T U V W X Y Z # 

Breaker Tabs

(ver. 1) Click to play this song!
Deerhunter
 Rating:
4.3/5 (23 votes)

 Breaker  lessons Tabs too difficult? Try these video lessons and learn fast
 
                [Verse]

e|--7-----------------7----------------------|
B|----8---------7-------8--------------------|
G|--------7-7h9---9-7------------------------|
D|-------------------------------------------|
A|-------------------------------------------|
E|-------------------------------------------|


[Chorus]

e|------0--------------------------------------------|
B|-------3------------0--------0-------0-------0-----|
G|--0-0----------------0--------0-------0-------0----|
D|--4-4-----4------2--------5-------2-------5--------|
A|--5-5-----5----3--------7-------3-------7----------|
E|---------------------------------------------------|

e|-------------------------------------------|
B|-----0~~-----------------------------------|
G|-0~~-0~~-----------------------------------|
D|—0~~-2~~-----------------------------------|
A|—2~~-3~~-----------------------------------|
E|—3~----------------------------------------|


[Verse]

e|--7-----------------7----------------------|
B|----8---------7-------8--------------------|
G|--------7-7h9---9-7------------------------|
D|-------------------------------------------|
A|-------------------------------------------|
E|-------------------------------------------|


[Chorus]

e|------0--------------------------------------------|
B|-------3------------0--------0-------0-------0-----|
G|--0-0----------------0--------0-------0-------0----|
D|--4-4-----4------2--------5-------2-------5--------|
A|--5-5-----5----3--------7-------3-------7----------|
E|---------------------------------------------------|

e|-------------------------------------------|
B|-----0~~-----------------------------------|
G|-0~~-0~~-----------------------------------|
D|—0~~-2~~-----------------------------------|
A|—2~~-3~~-----------------------------------|
E|—3~----------------------------------------|


[Outro / Solo]

e|-------------------------------------------|
B|--0----0---0-------------------------------|
G|--0----0---0-------------------------------|
D|--9----7---2-------------------------------|
A|--10---8---3-------------------------------|
E|-------------------------------------------|            
Submit corrections


        Breaker  lessons Hard to play? Try these video lessons and learn fast Breaker  lessons
        
↑ Back to top | Tablatures and chords for acoustic guitar and electric guitar, ukulele, drums are parodies/interpretations of the original songs. You may use it for private study, scholarship, research or language learning purposes only