» » »

Deerhunter - Agoraphobia Tabs

Artists:  A B C D E F G H I J K L M N O P Q R S T U V W X Y Z # 

Agoraphobia Tabs

(ver. 1) Click to play this song!
Deerhunter
 Rating:
4.3/5 (28 votes)

 Agoraphobia lessons Tabs too difficult? Try these video lessons and learn fast
 
                [Verse]

D#|----5-------3------5-------3------3------1------3---1---0------------------|
B |---------------------------------------------------------------------------|
G |-2-2-----2-2----2-2----2-2-----1-1----1-1----1-1---1---1---1---------------|
D |---------------------------------------------------------------------------|
A |---------------------------------------------------------------------------|
E |---------------------------------------------------------------------------|

D#|---------------------------------------------------------------------------|
B |---------------------------------------------------------------------------|
G |-6-6-6--(x4)--1-1-1--(x4)--------------------------------------------------|
D |-7-7-7--------2-2-2--------------------------------------------------------|
A |-7-7-7--------2-2-2--------------------------------------------------------|
E |-5-5-5--------0-0-0--------------------------------------------------------|


[Chorus]

D#|0--0--0--0--0--------------------------------------------------------------|
B |--2--2--2--2---2-2-2-2-2-2-4-4-0-0-0-0-0-0-0-0-0---------------------------|
G |---3--3--3--3---2-2-2-2-2-2-4-4-1-1-1-1-1-1-1-1----------------------------|
D |---------------------------------------------------------------------------|
A |---------------------------------------------------------------------------|
E |---------------------------------------------------------------------------|

D#|--------------------------------------------0-------0----------------------|
B |-----0-------0-------0-------0-------------0-0-----0-0---------------------|
G |----3-3-----3-3-----6-6-----6-6---8-8-8---1---1---1---1--------------------|
D |---4---4---4---4---7---7---7---7--9-9-9--2-----2-2-----2-------------------|
A |--4-----4-4-----4-7-----7-7-----7-9-9-9-2-------2--------------------------|
E |-2-------2-------5-------5--------7-7-7------------------------------------|            
Submit corrections


        Agoraphobia lessons Hard to play? Try these video lessons and learn fast Agoraphobia lessons
        
↑ Back to top | Tablatures and chords for acoustic guitar and electric guitar, ukulele, drums are parodies/interpretations of the original songs. You may use it for private study, scholarship, research or language learning purposes only