» » »

December Avenue - Sa Ngalan Ng Pag Ibig Tabs

Artists:  A B C D E F G H I J K L M N O P Q R S T U V W X Y Z # 

Sa Ngalan Ng Pag Ibig Tabs

(ver. 1) Click to play this song!
December Avenue
 Rating:
4.1/5 (31 vote)

 Sa Ngalan Ng Pag Ibig lessons Tabs too difficult? Try these video lessons and learn fast
 
                [Intro]
e|--------9-----------------------------------9-------5--------9-------------|
B|-----10----7--5--------------------------10-----7---------10---------------|
G|---9-----------7-6h7p7-4---6--6--------9----------------9--------9-11-9-7--|
D|-------------------------7-------------------------------------------------|
A|---------------------------------------------------------------------------|
E|---------------------------------------------------------------------------|

[Verse]
   (PM)   (PM)    (PM)    (PM)
e|---------------------------------------------|
B|---------------------------------------------|
G|--7-------4----------------------------------|  (2x)
D|--7-(8x)--4-(8x)--4-------5------------------|
A|--5-------2-------4-(8x)--5-(8x)-------------|
E|------------------2-------3------------------|

[Pre-Chorus]
e|-----------------------------------------------------|
B|-----------------------------------------------------|
G|--9---11---12---4---6--7---9/11-9\7---9/11-9/11------|
D|--x---x----x----x---x--x---x-x--x-x---x-x--x-x-------| (2x)
A|--7---9----10---2---4--5---7/9--7\5---7/9--7/9-------|
E|-----------------------------------------------------|

[Chorus]
e|---------------------------------------------------------------------------|
B|---------------------------------------------------------------------------|
G|--7(7)-6(6)-7(7)-9(9)----------------6(6)--7-------------------------------|
D|----------------------9(9)-7(7)-9(9)---------7--9--------------------------| (2x)
A|---------------------------------------------------------------------------|
E|---------------------------------------------------------------------------|

[Verse]
e|---------------------------------------------------------------------------| ------\
B|---------------------------------------------------------------------------|       |
G|--7-7(7)-7(7)-7(7)-7(7)-7(7)-4-4(4)-4(4)-4(4)-4(4)-4(4)--------------------|       |
D|---------------------------------------------------------------------------|       |
A|---------------------------------------------------------------------------|       |
E|---------------------------------------------------------------------------|       |
                                                                                    (2x)
e|---------------------------------------------------------------------------|       |
B|---------------------------------------------------------------------------|       |
G|-----------------------------6-6(6)-6(6)-6(6)-6(6)-6(6)--------------------|       |
D|--7-7(7)-7(7)-7(7)-7(7)-7(7)-----------------------------------------------|       |
A|---------------------------------------------------------------------------|       |
E|---------------------------------------------------------------------------| ------/

[Pre-Chorus]
e|-----------------------------------------------------|
B|-----------------------------------------------------|
G|--9---11---12---4---6--7---9/11-9\7---9/11-9/11------|
D|--x---x----x----x---x--x---x-x--x-x---x-x--x-x-------| (2x)
A|--7---9----10---2---4--5---7/9--7\5---7/9--7/9-------|
E|-----------------------------------------------------|

[Chorus]
e|---------------------------------------------------------------------------|
B|---------------------------------------------------------------------------|
G|--7(7)-6(6)-7(7)-9(9)----------------6(6)--7-------------------------------|
D|----------------------9(9)-7(7)-9(9)---------7--9--------------------------| (2x)
A|---------------------------------------------------------------------------|
E|---------------------------------------------------------------------------|

[Bridge]
e|------2--------1-------0-------2-------0--------------------------|
B|------3--------3-------3-------3-------0--------------------------|
G|------2--------2-------2-------0-------0-----5---5----------------|
D|----4--------3-------2-------0---------2-----5---5----------------|
A|--2--------1-------0-------------------2-----3---3----------------|
E|---------------------------3-----------0--------------------------|

[Chorus]
e|-----------------------------|
B|-----------------------------|
G|-----------------------------|
D|---4------5------------------|
A|---4-(8x)-5-(8x)-------------|
E|---2------3------------------|

e|---------------------------------------------------------------------------|
B|---------------------------------------------------------------------------|
G|--7(7)-6(6)-7(7)-9(9)----------------6(6)--7-------------------------------|
D|----------------------9(9)-7(7)-9(9)---------7--9--------------------------| (4x)
A|---------------------------------------------------------------------------|
E|---------------------------------------------------------------------------|

[Outro]
e|------------------------------------------------|
B|------------------------------------------------|
G|--7~-------2~------4~---------------------------|
D|------------------------------------------------| (2x)
A|------------------------------------------------|
E|------------------------------------------------|
            
Submit corrections


        Sa Ngalan Ng Pag Ibig lessons Hard to play? Try these video lessons and learn fast Sa Ngalan Ng Pag Ibig lessons
        
↑ Back to top | Tablatures and chords for acoustic guitar and electric guitar, ukulele, drums are parodies/interpretations of the original songs. You may use it for private study, scholarship, research or language learning purposes only