» » »

December Avenue - Bulong Tabs

Artists:  A B C D E F G H I J K L M N O P Q R S T U V W X Y Z # 

Bulong Tabs

(ver. 1) Click to play this song!
December Avenue
 Rating:
4.3/5 (25 votes)

 Bulong lessons Tabs too difficult? Try these video lessons and learn fast
 
                [Intro]

Rhythm: F--Am-G

Lead: (Repeat 2x)
e|----------------------|--------------------|
B|--10-------8----------|--10-------8~--12~--|
G|-----9-7-9------------|-----9-7-9----------|
D|-------------10-9-----|--------------------|
A|------------------10--|--------------------|
E|----------------------|--------------------|

[Verse 1]

Rhythm:
       F          Am          G
e|--------1--------------------------|
B|------1-------------1-----------0--|
G|----2-------------2----------------|
D|--3-------------2-------------0----|
A|--------------0-------------2------|
E|--------------------------3--------|

[Chorus]

Rhythm: F--Am-G

[Interlude]

Rhythm:
F--Am-G

Lead:
e|----------------------|--------------------|
B|--10-------8----------|--10-------8~--12~--|
G|-----9-7-9------------|-----9-7-9----------|
D|-------------10-9-----|--------------------|
A|------------------10--|--------------------|
E|----------------------|--------------------|

[Verse 2]

Rhythm/Lead: F--Am-G

[Chorus]

Rhythm: F--Am-G

Lead: (Repeat 2x)
e|-----------------------------------------------------------------|
B|--13\12-8-7/9-4/5---13\12-8-7/9/17\15---13\12-8-7/9-4/5----------|
G|---x\-x-x-x/x-x/x----x\-x-x-x/x/x-\-x----x\-x-x-x/x-x/x-5/7/9\5--|
D|--10\-9-5-4/6-1/2---10\-9-5-4/6/14\12---10\-9-5-4/6-1/2-x/x/x\x--|
A|--------------------------------------------------------3/5/7\5--|
E|-----------------------------------------------------------------|

[Instrumental]

Rhythm: F--Am-G

Lead:
e|-----------------------------------------------------------------|
B|--13\12-8-7/9-4/5---13\12-8-7/9/17\15---13\12-8-7/9-4/5----------|
G|--------------------------------------------------------5/7/9\5--|
D|-----------------------------------------------------------------|
A|-----------------------------------------------------------------|
E|-----------------------------------------------------------------|
 
Rhythm/Lead: F--Am-G

[Chorus]

Rhythm: F--Am-G

Lead: (Repeat 2x)
e|-----------------------------------------------------------------|
B|--13\12-8-7/9-4/5---13\12-8-7/9/17\15---13\12-8-7/9-4/5----------|
G|---x\-x-x-x/x-x/x----x\-x-x-x/x/x-\-x----x\-x-x-x/x-x/x-5/7/9\5--|
D|--10\-9-5-4/6-1/2---10\-9-5-4/6/14\12---10\-9-5-4/6-1/2-x/x/x\x--|
A|--------------------------------------------------------3/5/7\5--|
E|-----------------------------------------------------------------|


[Outro]

Rhythm: F--Am-G

Lead:
e|-----------------------------------------------------------------|
B|--13\12-8-7/9-4/5---13\12-8-7/9/17\15---13\12-8-7/9-4/5----------|
G|--------------------------------------------------------5/7/9\5--|
D|-----------------------------------------------------------------|
A|-----------------------------------------------------------------|
E|-----------------------------------------------------------------|
 
e|------------------------------------------------------------------------|
B|--10-----12--------------13--\12-8-13--\12-8-----13--\12-8-10-----------|
G|---x(8x)--x(2x)------9-7---------------------7-9-------------------7-9--|
D|---7------9-----10-9------------------------------------------9-10------|
A|------------------------------------------------------------------------|
E|------------------------------------------------------------------------|

Rhythm: (Repeat 2x)
       F          Am          G
e|--------1--------------------------|
B|------1-------------1-----------0--|
G|----2-------------2----------------|
D|--3-------------2-------------0----|
A|--------------0-------------2------|
E|--------------------------3--------|


Lead:
e|----------------------|--------------------|
B|--10-------8----------|--10-------8~--12~--|
G|-----9-7-9------------|-----9-7-9----------|
D|-------------10-9-----|--------------------|
A|------------------10--|--------------------|
E|----------------------|--------------------|            
Submit corrections


        Bulong lessons Hard to play? Try these video lessons and learn fast Bulong lessons
        
↑ Back to top | Tablatures and chords for acoustic guitar and electric guitar, ukulele, drums are parodies/interpretations of the original songs. You may use it for private study, scholarship, research or language learning purposes only