» » »

Death - In Human Form Tabs

Artists:  A B C D E F G H I J K L M N O P Q R S T U V W X Y Z # 

In Human Form Tabs

(ver. 1) Click to play this song!
Death
 Rating:
4/5 (4 votes)

 In Human Form lessons Tabs too difficult? Try these video lessons and learn fast
 
                   DEATH - IN HUMAN FORM  
                  From the Album INDIVIDUAL THOUGHT PATTERNS        
                    Copyright 1993 RELATIVITY RECORDS INC.
  
                         Version 1.0 - October 1998 
                                   

Transcription Done By: Kerry Vick
For Questions, Comments, Corrections, or Newest Version;  

To Join The Official Displacer's Death Tab Mailing List Contact Rich at
 
.  - palm mute                          /  - slide up to                      
\  - slide down to                      ~  - vibrato                           
"  - tremelo picking                   ( ) - ghost note
b  - bend                                h - hammer-on
fb - full bend (1 step)                  p - pull-off
hb - half bend (1/2 step)                r - release a bend
t  - tapping                            ah - artificial harmonic


Tuning = D (D,G,C,F,A,D)


Riff A
|---------------------------------|
|---------------------------------|
|---------------------------------|GTR I
|---------------------------------|
|-4---------------2-------5-------|
|---22222-4-22222---00000---33333-|
|   .....   .....   .....   ..... |
|                                 |
|---------------------------------|
|---------------------------------|
|---------------------------------|GTR II
|-------------------------7-------|
|---------------------------55555-|
|---------------------------------|



|---------------------------------|
|---------------------------------|
|---------------------------------|GTR I
|---------------------------------|
|-4---------------2-------5-------|
|---22222-4-22222---00000---33333-|
|   .....   .....   .....   ..... |
|                                 |
|---------------------------------|
|---------------------------------|
|-----6---------------4---2---2---|GTR II
|-444--44-444-644-222--22--00--00-|
|---------------------------------|
|---------------------------------|

Play Riff A two times


Riff B
|---------------------------------|
|---------------------------------|
|---------------------------------|GTRS I
|----------------------7----------|  & II
|---------5h7~-----------8-5-8-7~-|
|-0-0-0-0------0-0-0-0------------|
  . . . .      . . . .   . . .   


|------------------------------------------------|
|------------------------------------------------|
|------------------------------------------------|GTRS I
|------------------------------------------------|  & II
|---------5h7~-----7-----5--7-----5--7-----5~----|
|-0-0-0-0------0-0---5-3------5-3------5-3----3~-|
  . . . .      . .   . .      . .      . .

Play Riff B three times

Riff C.1-Solo 1/3
|--------------------------------------------------------------|
|--------------------------------------------------------------|
|--------------------------------------------------------------|GTRS I
|--------------------------------------------------------------|  & II
|-----------------------------------22222222-11111111----------|
|-0000000000000000-3333333333333333-------------------11111111-|
  ................ ................ ........ ........ ........


Riff C.2
|--------------------------------------------|
|--------------------------------------------|
|-----------------------------------4--3-----|GTRS I
|-----------------------------------2--1--3--|  & II
|-----------------------------------2--1--3--|
|-0000000000000000-3333333333333333-------1--|
  ................ ................


Play C.1 three times
Play C.2 one time


Riff D.1
|-----------------------------------------------------|
|-6-----6~-------5-----5~----6-----6~--------5-----8~-|
|---777---777777---777---777---777----777777---777----|GTRS I
|-----------------------------------------------------|  & II
|-----------------------------------------------------|
|-----------------------------------------------------|
    ...   ......   ...   ...   ...    ......   ...

Riff D.2
|-------------------------------------------------------|
|-6-----6~--------5-----5~-----6-----6~--------5-----8~-|
|---777----777777---777----777---777----777777---777----|GTR I
|-------------------------------------------------------| 
|-------------------------------------------------------|
|-------------------------------------------------------|
|   ...   ......    ...    ...   ...    ......   ...    |
|                                                       |
|-------------------------------------------------------|
|-------------------------------------------------------|
|-3-----3~--------2-----2~-----3-----3~--------2-----5~-|GTR II
|---555----555555---555----555---555----555555---555----|
|-------------------------------------------------------|
|-------------------------------------------------------|
|-------------------------------------------------------|
    ...   ......    ...    ...   ...    ......   ...   


Play Riff D.1 two times
Play Riff D.2 two times

Riff E
|-----------------------------------------|
|-----------------------------------------|
|-----------------------------------------|GTR I
|------7--------5~----8-7---7~-8-7---10---|
|-0000---000000----00-----6--------8----8-|
|-----------------------------------------|
| ....   ......    ..                     |
|                                         |
|-----------------------------------------|
|-----------------------------------------|
|------9--------7~------------------------|GTR II
|---------------------8-7---7~-8-7---10---|
|-0000---000000----00-----6--------8----8-|
|-----------------------------------------|
  ....   ......


|------------------------------------------|
|------------------------------------------|
|------------------------------------------|GTR I
|------7--------4/5-5~-8-7---7~-8-7---10---|
|-0000---000000------------6--------8----8-|
|------------------------------------------|
| ....   ......                            |
|                                          |
|------------------------------------------|
|------------------------------------------|
|------9--------6/7------------------------|GTR II
|-------------------5~-8-7---7~-8-7---10---|
|-0000---000000------------6--------8----8-|
|------------------------------------------|
  ....   ......        


Play Riff E two times


Riff F-Solo 2
|---------------------------------------|
|---------------------------------------|
|---------------------------------------|GTRS I
|-6------5------2--4------3------3------|  & II
|-6------5------2--2-2222-1-1111-3------|
|-4-4444-3-3333-0----------------1-1111-|
    ....   ....      ....   ....   ....


Play Riff F six times


Riff G.1
|-----------------------|
|-----------------------|
|-----------------------|GTRS I
|-----1-0---3-2---2-1---|  & II
|-000-----1-----3-----2-|
|-----------------------|
  ...


Riff G.2
|-----------------------|
|-----------------------|
|-----------------------|GTR I
|-----1-0---3-2---2-1---|
|-000-----1-----3-----2-|
|-----------------------|
| ...                   |
|                       |
|-----------------------|
|-----------------------|
|-----3-2---5-4---4-3---|GTR II
|---------3-----5-----4-|
|-000-------------------|
|-----------------------|
  ...

Play Riff G.1 five times
Play Riff G.2 five times

Repeat 
  Play Riff B three times
  Play C.1 three times
  Play C.2 one time
  Play Riff D.1 two times
  Play Riff D.2 two times
  Play Riff E two times
            
Submit corrections


        In Human Form lessons Hard to play? Try these video lessons and learn fast In Human Form lessons
        
↑ Back to top | Tablatures and chords for acoustic guitar and electric guitar, ukulele, drums are parodies/interpretations of the original songs. You may use it for private study, scholarship, research or language learning purposes only