Home » D » Dean Martin »

Dean Martin - Let It Snow Tabs

Artists:  A B C D E F G H I J K L M N O P Q R S T U V W X Y Z # 

Let It Snow Tabs

(ver. 1) Click to play this song!
Dean Martin
         D           A7     D                     A       E7   A
e|-------5--5----------------------------------------------------------------|
B|7---7----------8---7---5------------------------5--------5-----------------|
G|---------------------------7-------------------------7------7--6-----------|
D|----------------------------------7-----7---7---------------------7--------|
A|---------------------------------------------------------------------------|
E|---------------------------------------------------------------------------|
  Oh the weather outside is fright full, but the fire  is so delightful

      Em             B7       Em         A7          F#M           D
e|5----7----7-----5---------------9---7---5----5-----------------------------|
B|--------------------8----7--5--------------------7---8-----7--5---7--------|
G|---------------------------------------------------------------------------|
D|---------------------------------------------------------------------------|
A|---------------------------------------------------------------------------|
E|---------------------------------------------------------------------------|
  And since we've no place to go, Let it snow, Let it snow, let it snow

     D           A7        D             A            E7        A
e|---5--5--------------------------------------------------------------------|
B|7----------8----7----5------------------5------------5---------------------|
G|------------------------7-----------------------7--------7---6-------------|
D|-----------------------------7----7--7---------------------------7---------|
A|---------------------------------------------------------------------------|
E|---------------------------------------------------------------------------|
  It doesnt show signs of stopping and I brought some corn for popping.

      EM                B7        Em         A7           F#m          D
e|5-----7-----7----5-------------------9--7---5----5-------------------------|
B|----------------------8----7----5--------------------7---8----7---5--------|
G|----------------------------------------------------------------------7----|
D|---------------------------------------------------------------------------|
A|---------------------------------------------------------------------------|
E|---------------------------------------------------------------------------|
  The lights are turned way down low, Let it snow, let it snow, let it snow

          A                               Bm         E7          A
e|----------------------5----------------------------------------------------|
B|--------5-7--5-----------5---------5---------------------------------------|
G|-6---7-----------6-------------6--------7----7--6--------------6-----------|
D|---------------------------------------------------9---7--9----------------|
A|---------------------------------------------------------------------------|
E|---------------------------------------------------------------------------|
  When we finally kiss goodnight how I'll hate going out in the storm.

         A                        B7          E7           A
e|------------------------5-------5----4-------4----5---7--5-----------------|
B|-------5---7---5-----------5------------7----------------------------------|
G|6---7--------------6-------------------------------------------------------|
D|---------------------------------------------------------------------------|
A|---------------------------------------------------------------------------|
E|---------------------------------------------------------------------------|
  But if you really hold me tight all the way home I'll be warm.

      D        A7    D             A         E7        A               Em
e|----5-5-------------------------------------------------------5---5---7----|
B|7--------8--7---5----------------5----------5------------------------------|
G|-------------------7------------------7----------7---6---------------------|
D|----------------------7---7--7----------------------------7----------------|
A|---------------------------------------------------------------------------|
E|---------------------------------------------------------------------------|
  The fire is slowly dying and my dear were still good bye-ing, but as long

         B7      Em         A7           Em          D
e|7--5----------------9--7---5----5------------------------------------------|
B|--------8---7---5-------------------7---8----7---5-------------------------|
G|-----------------------------------------------------7---------------------|
D|---------------------------------------------------------------------------|
A|---------------------------------------------------------------------------|
E|---------------------------------------------------------------------------|
  As you love me so, let it snow, let it snow, let it snow.

            
Submit corrections

↑ Back to top | Tablatures and chords for acoustic guitar and electric guitar, ukulele, drums are parodies/interpretations of the original songs. You may use it for private study, scholarship, research or language learning purposes only