Home » D » Deafheaven »

Deafheaven - Sunbather Tabs

Artists:  A B C D E F G H I J K L M N O P Q R S T U V W X Y Z # 

Sunbather Tabs

(ver. 1) Click to play this song!
Deafheaven
Intro
e|---------------------------------------------------------------------------|
B|---------------------------------------------------------------------------|
G|---------11-13-14--8--9-11-13----------------------------------------------|
D|--6----6--x--x--x--x--x--x--x--6----6--6-----------------------------------| x2
A|--7----7--9-11-12--6--7--9-11--7----7--6-----------------------------------|
E|--9----0-----------------------4----7--7-----------------------------------|

e|---------------------------------------------------------------------------|
B|---------------------------------------------------------------------------|
G|---------11-13-14-16-18-20-21----------------------------------------------|
D|--6----6--x--x--x--x--x--x--x--6----6--6-----------------------------------| x1
A|--7----7--9-11-12-14-16-18-19--7----7--6-----------------------------------|
E|--9----0-----------------------4----7--7-----------------------------------|

"I grip the wheel..."
e|---------0----------0----------0--------0----------------------------------|
B|----------0----------0----------0------------------------------------------|
G|---------------------------------------------------------------------------|
D|--2-2--------4-4--------6-6--------6-6-------6----7------------------------| x1
A|--x-x--------x-x--------7-7--------7-7-------7----6------------------------|
E|--5-5--------5-5--------5-5--------5-5-------0----0------------------------|

"I sweat against the leather..."
e|---------0----------0----------0--------0----------------------------------|
B|----------0----------0----------0------------------------------------------|
G|---------------------------------------------------------------------------|
D|--2-2--------4-4--------6-6--------6-6-------------------------------------| x1
A|--x-x--------x-x--------7-7--------7-7-------------------------------------|
E|--5-5--------5-5--------5-5--------5-5-------------------------------------|

"I watched the dogs twist through..." 
Guitar 1                       
e|---------------------------------------------------------------------------|
B|---------------------------------------------------------------------------|
G|---------------------------------------------------------------------------|
D|--6----7----7--6-------------------6---------------------------------------|
A|--7----7----7--7-----x2, end on----7---------------------------------------|
E|--9----7----5--5-------------------9---------------------------------------|
Guitar 2
e|---------------------------------------------------------------------------|
B|---------------------------------------------------------------------------|
G|--9---11----8----9---11----8---13---16---11----9--8------------------------|
D|--x----x----x----x----x----x----x----x----x----x--x--6---------------------|
A|--7----9----6----7----9----6---11---14----9----7--6--7---------------------|
E|-----------------------------------------------------9---------------------|

Not sure about the clean part, so I'll leave it out for now

Post-clean part, around 3:09 in the song
e|---------------------------------------------------------------------------|
B|---------------------------------------------------------------------------|
G|-----------9----6----------------------------------------------------------|
D|--6--------6----7----------------------------------------------------------| x2
A|--7--------7----7----------------------------------------------------------|
E|--0--------9----5----------------------------------------------------------|

e|---------------------------------------------------------------------------|
B|---------------------------------------------------------------------------|
G|---------------------------------------------------------------------------|
D|--6----6----7----6--4------------------------------------------------------| x2
A|--7----7----7----7--4------------------------------------------------------|
E|--9----7----5----4--2------------------------------------------------------|

solo thing part 1
e -12------------------12----------------------------------------------------|
B ----10--9b10b9--7--------10--9b10b9--7-------------------------------------|
G ------------------9--------------------9-----------------------------------|
D ---------------------------------------------------------------------------|
A ---------------------------------------------------------------------------|
E ---------------------------------------------------------------------------|

solo thing part 2
e ---------------------------------------------------------------------------|
B ---------------------------------------------------------------------------|
G --2--1----------------2--1-------------------------------------------------|
D --------4--2--1b2b1---------4--2--1b2b1------------------------------------|repeat both partsx2
A ---------------------------------------------------------------------------|
E ---------------------------------------------------------------------------|

4:22
e ---------------------------------------------------------------------------|
B -------------------------------------8-----------------8-------------------|
G -------------------------------------x-----------------x-------------------|
D --6----4--6--7----6-----x2--6--------6--------6--------6--------6-6--------|
A --7----4--6--7----7---------7--------7--------7--------7--------7-7--------|
E -------2--4--5----4--------------------------------------------------------|

5:08
e ---------------------------------------------------------------------------|
B ---------------------------------------------------------------------------|
G ---------------------------------------------------------------------------|
D --6-------10----9--7-------------------------------------------------------| x2
A --7-------10---10--7-------------------------------------------------------|
E --0--------8----7--5-------------------------------------------------------|

5:51
e ---------------------------------------------------------------------------|
B --8----7--8---13-12--------------------------------------------------------|
G --x----x--x----x--x--------------------------------------------------------|
D --5----4--5---10--9--------------------------------------------------------|
A ---------------------------------------------------------------------------|
E ---------------------------------------------------------------------------|

6:15, for this part there's a few guitar tracks going, I'll tab out the two that I can hear best.
Play either one they'll both work. 
1
e ---------------------------------------------------------------------------|
B --8----7--5-------10----------8--------------------------------------------|
G --x----x--x--------x----------x--------------------------------------------|
D --5----4--2--------7-----x2---5--------------------------------------------|
A ------------------------------7--------------------------------------------|
E ---------------------------------------------------------------------------|
2       
e ---------------------------------------------------------------------------|
B --8----7--8-13----12----------8--------------------------------------------|
G --x----x--x--x-----x----------x--------------------------------------------|
D --5----4--5-11-----9-----x2---5--------------------------------------------|
A ------------------------------7--------------------------------------------|
E ---------------------------------------------------------------------------|

6:44
e --0------------------------------------------------------------------------|
B --0------------------------------------------------------------------------|
G --0------------------------------------------------------------------------|
D --0----9----7----2----10----9--7----2----10----9--7------------------------|
A --0----9----7----2----10----9--7----2----10----9--7----7-------------------|
E --0----7----5----0-----8----7--5----0-----8----7--5----0-------------------|
    ^divebomb

7:45 I'm not sure about the chords, but I'll tab the lead
e ---------------------------------------------------------------------------|
B --7-8/---------------------------------------------------------------------|
G ---------------------------------------------------------------------------|
D ---------------------------------------------------------------------------| x4
A ---------------------------------------------------------------------------|
E ---------------------------------------------------------------------------|

8:32 You can also play the low E power chords here instead
e ---------------------------------------------------------------------------|
B --5----7----8---13-12-13-12------------------------------------------------|
G --x----x----x----x--x--x--x----9----7----4b--------------------------------|
D --2----4----5---10--9-10--9----x----x----x---------------------------------| x2
A -------------------------------7----5----2b--------------------------------|
E ---------------------------------------------------------------------------|

9:21
e ---------------------------------------------------------------------------|
B ---------------------------------------------------------------------------|
G --9--7----4----------14---12---11----17-16-17-16---------------------------|
D --9--7----4-----x2----x----x----x-----x--x--x--x-----x2---10---------------|
A --7--5----2----------12---10----9----15-14-15-14-----------7---------------|
E --0--0----0------------------------------------------------8---------------|            
Submit corrections

↑ Back to top | Tablatures and chords for acoustic guitar and electric guitar, ukulele, drums are parodies/interpretations of the original songs. You may use it for private study, scholarship, research or language learning purposes only