Home » D » Dead Meadow »

Dead Meadow - Beyond The Fields We Know Bass

Artists:  A B C D E F G H I J K L M N O P Q R S T U V W X Y Z # 

Beyond The Fields We Know Bass

(ver. 1) Click to play this song!
Dead Meadow
-----------------------------------------------------------------
-----------------------------------------------------------------


Tuning: Standard EADG


Main Riff
G|---------------------------9-----------------------------------|
D|------------------7----9--7---7-9----9-------------------------|
A|----5----7----10--------------------7----7-7-7-10-9-7-7--------|
E|-0----0----0-----0---0-----------------------------------------|

Bass Interlude
G|---------------------------------------------------------------|
D|-----------------7---9p7---------------------------------------|
A|----7----5-7-7/9---9---------------x3--------------------------|
E|-0----0------------------7-6-7---------------------------------|

G|---9-----------------------------------------------------------|
D|-----7-9----9--------------------------------------------------|
A|---------7----7-7-10-9-7-7-------------------------------------|
E|-0-------------------------------------------------------------|



| /  slide up
| \  slide down
| h  hammer-on
| p  pull-off
| ~  vibrato
| +  harmonic
| x  Mute note
            
Submit corrections

↑ Back to top | Tablatures and chords for acoustic guitar and electric guitar, ukulele, drums are parodies/interpretations of the original songs. You may use it for private study, scholarship, research or language learning purposes only