» » »

Days Of The New - Shelf In The Room Tabs

Artists:  A B C D E F G H I J K L M N O P Q R S T U V W X Y Z # 

Shelf In The Room Tabs

(ver. 1) Click to play this song!
Days Of The New
 Rating:
4.8/5 (20 votes)


 Shelf In The Room lessons Tabs too difficult? Try these video lessons and learn fast
 
                There are other tabs for this song, I know, and I just retabbed it and put it like 
this, so it was a lot easier to read(: 
Tuning: E standard
Enjoy!(:
Intro:
-----------------------------------|-----------------------------------|
-----------------------------------|-----------------------------------|
---2-----2-------4-----4---5^4---4-|---2-----2-------4-----4---5^4---4-|
-----0-----0-------0---------------|-----0-----0-------0---------------|
-----------------------------------|-----------------------------------|
-0-----3-----3/5-----5---5-----5---|-0-----3-----3/5-----5---5-----5---|

-----------------------------------|-----------------------------------|
-----------------------------------|-----------------------------------|
---2-----2-------4-----4---5^4---4-|---2-----2-------4-----------------|
-----0-----0-------0---------------|-----0-----0-------0---0-----0---0-|
-----------------------------------|-----------------------------------|
-0-----3-----3/5-----5---5-----5---|-0-----3-----3/5-----5---5-5---3---|

-----------------------------------|-----------------------------------|
-----------------------------------|-----------------------------------|
---2-----2-------4-----------------|---2-----2-------4-----------------|
-----0-----0-------0---0-----0---0-|-----0-----0-------0---0-----0---0-|
-----------------------------------|-----------------------------------|
-0-----3-----3/5-----5---5-5---3---|-0-----3-----3/5-----5---5-5---3---|

-----------------------------------|---------0-------------------------|
-----------------------------------|---3-------3-----0-----------------|
---2-----2-------4-----------------|-----2-------------4---4---5^4---4-|
-----0-----0-------0---0-----0---0-|-----------------------------------|
-----------------------------------|-----------------------------------|
-0-----3-----3/5-----5---5-5---3---|-0-----3-----3/5-----5---5-----5---|

-----------------------------------|-----------------------------------|
-----------------------------------|-----------------------------------|
---2-----2-------4-----4---5^4---4-|---2-----2-------4-----4---5^4---4-|
-----0-----0-------0---------------|-----0-----0-------0---------------|
-----------------------------------|-----------------------------------|
-0-----3-----3/5-----5---5-----5---|-0-----3-----3/5-----5---5-----5---|

-----------------------------------|-----------------------------------|
-----------------------------------|-----------------------------------|
---2-----2-------4-----4---5^4---4-|---2-----2-------4-----------------|
-----0-----0-------0---------------|-----0-----0-------0---0-----0---0-|
-----------------------------------|-----------------------------------|
-0-----3-----3/5-----5---5-----5---|-0-----3-----3/5-----5---5-5---3---|

-----------------------------------|-----------------------------------|
-----------------------------------|-----------------------------------|
---2---5---2-4-------4---5-4---4---|---2---5---2-4-------4---5-4---4---|
-----0---0-----0---0---0-----0-----|-----0---0-----0---0---0-----0-----|
-----------------------------------|-----------------------------------|
-0---------------0-----------------|-0---------------0-----------------|

-----------------------------------|---------0-------------------------|
-----------------------------------|---3-------3-----0-----------------|
---2---5---2-4-------4---5-4---4---|-----2-------------4---4---5^4---4-|
-----0---0-----0---0---0-----0-----|-----------------------------------|
-----------------------------------|-----------------------------------|
-0---------------0-----------------|-0-----3-----3/5-----5---5-----5---|
Verse:
-----------------------------------|-----------------------------------|
-----------------------------------|-----------------------------------|
---2-----2-------4-----------------|---2-----2-------4-----------------|
-----0-----0-------0---0-----0---0-|-----0-----0-------0---0-----0---0-|
-----------------------------------|-----------------------------------|
-0-----3-----3/5-----5---5-5---3---|-0-----3-----3/5-----5---5-5---3---|

-----------------------------------|-----------------------------------|
-----------------------------------|-----------------------------------|
---2-----2-------4-----4h5p4-----4-|---2-----2-------4-----------------|
-----0-----0-------0---------0-----|-----0-----0-------0---0-----0---0-|
-----------------------------------|-----------------------------------|
-0-----3-----3/5-----5---------5---|-0-----3-----3/5-----5---5-5---3---|
---------0-------------------------|---------0-------------------------|
---3-------3-----0-----------------|---3-------3-----0-----------------|
-----2-------------4---4---5^4---4-|-----2-------------4---4---5^4---4-|
-----------------------------------|-----------------------------------|
-----------------------------------|-----------------------------------|
-0-----3-----3/5-----5---5-----5---|-0-----3-----3/5-----5---5-----5---|

---------0-------------------------|-----------------------------------|
---3-------3-----0-----------------|-3-----3---3---0-------------------|
-----2-------------4---4---5^4---4-|-2-----2---2---4-------------------|
-----------------------------------|-0-----0---0---0-------------0---0-|
-----------------------------------|-0-----0---0---5-------------------|
-0-----3-----3/5-----5---5-----5---|-0-----3---3---5-----5-5-5-5---3---|
Chorus:
-------------------0-----0---0-----|-------------------0-----0---0-----|
-2-----2---2-------3-----3---3-----|-2-----2---2-------3-----3---3-----|
-3-----3---3---4---4-----4---4-----|-3-----3---3---4---4-----4---4-----|
-0-----0---0---0---0-----0---0-----|-0-----0---0---0---0-----0---0-----|
-0-----0---0---5---5-----5---5-----|-0-----0---0---5---5-----5---5-----|
-0-----3---3---5---5-----5---5-----|-0-----3---3---5---5-----5---5-----|
break:
-----------------------------------|-----------------------------------|
-----------------------------------|-----------------------------------|
---2---5---2-4-------4---5-4---4---|---2---5---2-4-------4---5-4---4---|
-----0---0-----0---0---0-----0-----|-----0---0-----0---0---0-----0-----|
-----------------------------------|-----------------------------------|
-0---------------0-----------------|-0---------------0-----------------|

-----------------------------------|-----------------------------------|
-----------------------------------|-----------------------------------|
---2---5---2-4-------4---5-4---4---|---2---5---2-4-------4---5-4---4---|
-----0---0-----0---0---0-----0-----|-----0---0-----0---0---0-----0-----|
-----------------------------------|-----------------------------------|
-0---------------0-----------------|-0---------------0-----------------|

-----------------------------------|-----------------------------------|
-----------------------------------|-----------------------------------|
---2-----2-------4-----4---5^4---4-|---2-----2-------4-----------------|
-----0-----0-------0---------------|-----0-----0-------0---0-----0---0-|
-----------------------------------|-----------------------------------|
-0-----3-----3/5-----5---5-----5---|-0-----3-----3/5-----5---5-5---3---|

-----------------------------------|-----------------------------------|
-----------------------------------|-3-----3---3---0-------------------|
---2-----2-------4-----4---5^4---4-|-2-----2---2---4-------------------|
-----0-----0-------0---------------|-0-----0---0---0-------------0---0-|
-----------------------------------|-0-----0---0---5-------------------|
-0-----3-----3/5-----5---5-----5---|-0-----3---3---5-----5-5-5-5---3---|
verse:
-----------------------------------|-----------------------------------|
-----------------------------------|-----------------------------------|
---2-----2-------4-----------------|---2-----2-------4-----------------|
-----0-----0-------0---0-----0---0-|-----0-----0-------0---0-----0---0-|
-----------------------------------|-----------------------------------|
-0-----3-----3/5-----5---5-5---3---|-0-----3-----3/5-----5---5-5---3---|

-----------------------------------|-----------------------------------|
-----------------------------------|-----------------------------------|
---2-----2-------4-----4h5p4-----4-|---2-----2-------4-----------------|
-----0-----0-------0---------0-----|-----0-----0-------0---0-----0---0-|
-----------------------------------|-----------------------------------|
-0-----3-----3/5-----5---------5---|-0-----3-----3/5-----5---5-5---3---|

---------0-------------------------|---------0-------------------------|
---3-------3-----0-----------------|---3-------3-----0-----------------|
-----2-------------4---4---5^4---4-|-----2-------------4---4---5^4---4-|
-----------------------------------|-----------------------------------|
-----------------------------------|-----------------------------------|
-0-----3-----3/5-----5---5-----5---|-0-----3-----3/5-----5---5-----5---|



---------0-------------------------|-----------------------------------|
---3-------3-----0-----------------|-3-----3---3---0-------------------|
-----2-------------4---4---5^4---4-|-2-----2---2---4-------------------|
-----------------------------------|-0-----0---0---0-------------0---0-|
-----------------------------------|-0-----0---0---5-------------------|
-0-----3-----3/5-----5---5-----5---|-0-----3---3---5-----5-5-5-5---3---|
Chorus:
-------------------0-----0---0-----|-------------------0-----0---0-----|
-2-----2---2-------3-----3---3-----|-2-----2---2-------3-----3---3-----|
-3-----3---3---4---4-----4---4-----|-3-----3---3---4---4-----4---4-----|
-0-----0---0---0---0-----0---0-----|-0-----0---0---0---0-----0---0-----|
-0-----0---0---5---5-----5---5-----|-0-----0---0---5---5-----5---5-----|
-0-----3---3---5---5-----5---5-----|-0-----3---3---5---5-----5---5-----|
solo:
-------------------0-----0---0-----|  I didnt bother tabbing out the solo
-2-----2---2-------3-----3---3-----|     cause it would have taken too long
-3-----3---3---4---4-----4---4-----|       so instead I just put the chords
-0-----0---0---0---0-----0---0-----|              ( :
-0-----0---0---5---5-----5---5-----|
-0-----3---3---5---5-----5---5-----|
break:
-----------------------------------|-----------------------------------|
-----------------------------------|-----------------------------------|
---2---5---2-4-------4---5-4---4---|---2---5---2-4-------4---5-4---4---|
-----0---0-----0---0---0-----0-----|-----0---0-----0---0---0-----0-----|
-----------------------------------|-----------------------------------|
-0---------------0-----------------|-0---------------0-----------------|

-----------------------------------|-----------------------------------|
-----------------------------------|-----------------------------------|
---2---5---2-4-------4---5-4---4---|---2---5---2-4-------4---5-4---4---|
-----0---0-----0---0---0-----0-----|-----0---0-----0---0---0-----0-----|
-----------------------------------|-----------------------------------|
-0---------------0-----------------|-0---------------0-----------------|

-----------------------------------|-----------------------------------|
-----------------------------------|-----------------------------------|
---2-----2-------4-----4---5^4---4-|---2-----2-------4-----------------|
-----0-----0-------0---------------|-----0-----0-------0---0-----0---0-|
-----------------------------------|-----------------------------------|
-0-----3-----3/5-----5---5-----5---|-0-----3-----3/5-----5---5-5---3---|

-----------------------------------|-----------------------------------|
-----------------------------------|-3-----3---3---0-------------------|
---2-----2-------4-----4---5^4---4-|-2-----2---2---4-------------------|
-----0-----0-------0---------------|-0-----0---0---0-------------0---0-|
-----------------------------------|-0-----0---0---5-------------------|
-0-----3-----3/5-----5---5-----5---|-0-----3---3---5-----5-5-5-5---3---|
outro:
-----------------------------------|-----------------------------------|
-----------------------------------|-----------------------------------|
---2-----2-------4-----4---5^4---4-|---2-----2-------4-----4---5^4---4-|
-----0-----0-------0---------------|-----0-----0-------0---------------|
-----------------------------------|-----------------------------------|
-0-----3-----3/5-----5---5-----5---|-0-----3-----3/5-----5---5-----5---|

-----------------------------------|
-----------------------------------|
---2-----2-------4-----4---5^4---4-|
-----0-----0-------0---------------|
-----------------------------------|
-0-----3-----3/5-----5---5-----5---|
            
Submit corrections



        Shelf In The Room lessons Hard to play? Try these video lessons and learn fast Shelf In The Room lessons
        
↑ Back to top | Tablatures and chords for acoustic guitar and electric guitar, ukulele, drums are parodies/interpretations of the original songs. You may use it for private study, scholarship, research or language learning purposes only