Home » D » Dawes »

Dawes - To Be Completely Honest Tabs

Artists:  A B C D E F G H I J K L M N O P Q R S T U V W X Y Z # 

To Be Completely Honest Tabs

(ver. 1) Click to play this song!
Dawes
Tuning:   Guitar 1: Standard CAPO II

[Solo - 2:14]
e|------------------------------------------------------------------------------------------------------|
B|-1p0h1~----1-3/5\3~---0h1-0h1-0-----------------------------------------------------------------------|
G|---------0-----------------------2/4-2p0h2-------------------------5-4-5-7/9-7\5/7/9~--7h9h10-9p7p5-7-|
D|-------------------------------------------0h2-0-----------------5------------------------------------|
A|-------------------------------------------------3-2~--2h3h4h5/7--------------------------------------|
E|------------------------------------------------------------------------------------------------------|
 [2:32]
e|------3~--------------------------------------------------------------7-8-10-10-/-12-12-12p10p8h10h12~|
B|-2/4~------10-------10/12-13-10~--12p10--------------------------8-10---------------------------------|
G|-------------12-------------------------12-10-9h10p9\7\5\4/5/7-9--------------------------------------|
D|---------------12~------------------------------------------------------------------------------------|
A|------------------------------------------------------------------------------------------------------|
E|------------------------------------------------------------------------------------------------------|
 [2:46]
e|--13-13-13p12p10h12h13-12-10-12-----------------------------------------------------------------------|
B|--------------------------------10/12~--10-12-13-13-12-10---------------------------------------------|
G|----------------------------------------------------------12-12\10-10-9h10p9-7\6\5\4-4-5-4-2-0-2/4----|
D|------------------------------------------------------------------------------------------------------|
A|------------------------------------------------------------------------------------------------------|
E|------------------------------------------------------------------------------------------------------|
 [2:55]
e|------------------7--10-12-/-15-15~-12h13-12-10----------------------10-12----10~---------------------|
B|-3-3-2-3-5-7-8-10-------------------------------13-12-10----10-10h12-------12-----10/12~\10~\8~\5-6-5-|
G|---------------------------------------------------------12-------------------------------------------|
D|------------------------------------------------------------------------------------------------------|
A|------------------------------------------------------------------------------------------------------|
E|------------------------------------------------------------------------------------------------------|
 [3:08]
e|------------------------------------------------------------------------------------------------------|
B|-3-1-0------------------------------------------------------------------------------------------------|
G|-------2-0-----0--------------------------------------------------------------------------------------|
D|-----------2-0----------------------------------------------------------------------------------------|
A|------------------------------------------------------------------------------------------------------|
E|-----------------3~-----------------------------------------------------------------------------------|            
Submit corrections

↑ Back to top | Tablatures and chords for acoustic guitar and electric guitar, ukulele, drums are parodies/interpretations of the original songs. You may use it for private study, scholarship, research or language learning purposes only