» » »

David Wilcox - Between The Lines Chords

Artists:  A B C D E F G H I J K L M N O P Q R S T U V W X Y Z # 

Between The Lines Chords

(ver. 1) Click to play this song!
David Wilcox
 Rating:
4.4/5 (11 votes)

 Between The Lines lessons Tabs too difficult? Try these video lessons and learn fast
 
                
[Intro]

E     E     E     E     
D     A     E     E     
D     A     E     E     
E     E     

[VERSE]

     E
Dear darling
           B
I love you always
            C#m
Some things never change
    B       A
Our love is one of them
                E
That's what you say
        B
In your letter
        E
Of only yesterday

A  B  

                    E
But there's another story
              B
Hidden on the pages
                   C#m
Where though I can see it
B    A                   B
Only hearts can feel the words
            E
Between the lines
    A                 B                E
The little signs that hide between the lines
    A                 B                E
The little signs that hide between the lines

     E
Opportunity
         B
A sudden phone call
       C#m
Such a little white lie
B         A
Ooh where when or why
                 E
My friends won't say a thing
        B
Think I must be blind
         E
Truth is so unkind

A  B  

            E
A glance, a whisper
            B
A chance to meet
         C#m
Across a crowded room
  B      A
A guilty secret
     B                E
That lies between the lines
    A                 B                E
The little signs that hide between the lines
    A                 B                E
The little signs that hide between the lines

[BRIDGE]

D     A     E     E     
D     A     E     E     

          E
There's a place I believe in
       D
Partly truth
       E
Partly fiction

I can say with conviction
         D
I'll get there
         E
I'll get there

[SOLO]

E     E     D     E     x2

(Thought I'd attempt to tab out the solo. it's played with an octavizer effect)

e|----------------|----------------|----------------|----------------|
B|----------------|----------------|----------------|----------------|
G|----------------|----------------|----------------|----------------|
D|--------------9-|9/11-9--------9-|-------------9--|----------------|
A|-----------/11--|----------/11---|7/9-7----9h11-9-|7---7-----------|
E|----------------|----------------|----------------|--------7h9p7--9|

e|----------------|--------12p9----|----------------|----------------|----------------|
B|----------------|------------12p9|----------------|----------------|----------------|
G|----------------|----------------|9/11--9---9/11--|---7---------7--|------9---------|
D|--------------9-|9/11-9----------|----------------|-7-------7------|----------------|
A|-----------/11--|----------------|----------------|-----9----------|9/11------------|
E|0---------------|----------------|----------------|----------------|----------------|

[VERSE]

     E
Dear darling
           B
I love you always
            C#m
Some things never change
    B       A
Our love is one of them
                E
That's what you say
        B
In your letter
        E
Of only yesterday

A  B  

                    E
But there's another story
              B
Hidden on the pages
                   C#m
Where though I can see it
B    A                   B
Only hearts can feel the words
            E
Between the lines
    A                 B                E
The little signs that hide between the lines
    A                 B                E
The little signs that hide between the lines

[OUTRO]

Repeat this as the song fades out:
D     A     E     E
            
Submit corrections


        Between The Lines lessons Hard to play? Try these video lessons and learn fast Between The Lines lessons
        
↑ Back to top | Tablatures and chords for acoustic guitar and electric guitar, ukulele, drums are parodies/interpretations of the original songs. You may use it for private study, scholarship, research or language learning purposes only