» » »

David Guetta - Shed A Light Tabs

Artists:  A B C D E F G H I J K L M N O P Q R S T U V W X Y Z # 

Shed A Light Tabs

(ver. 1) Click to play this song!
David Guetta
 Rating:
4.3/5 (22 votes)

 Shed A Light  lessons Tabs too difficult? Try these video lessons and learn fast
 
                [Chords - Eb tuning]
E|-------------|--------------|---------------|
B|---------3---|---------7----|---------------|
G|-----4-----4-|-----7-----7--|---------6-----|
D|---4---4-----|---7---7------|-----7-----7---|
A|-2-----------|-5------------|---7---7-------|
E|-------------|--------------|-5-------------|

[Chorus and rest of song]
E|----------|---------|---------|-----------|
B|-----3----|----7----|---------|-----------|
G|---4--4-4-|--7--7-7-|----6----|-----1-----|
D|--4-4--4--|-7-7--7--|--7--7-7-|---2--2-2--|
A|-2--------|5--------|-7-7--7--|--2-2--2---|
E|----------|---------|5--------|-0---------|

[Lyrics - normal tuning]
E|---------------------------|-------------------------------------------|
B|---------------------------|-------------------------------------------|
G|-10---8-8-8\5-5------------|------------8------------------------------|
D|------------------8-8-8-6--|-----6-8-10---10-------6-8-10-8-8----------| (x2)
A|---------------------------|-6-8---------------6-8------------11-8-11--|
E|---------------------------|-------------------------------------------|

E|-----|------------------------|-------------------------------|--------------------------------|
B|-----|------------------------|-------------------------------|--------------------------------|
G|-----|------------------------|-------------------------------|--------------------------------|
D|-----|-8--8--8-8--6--10-10-8--|-----8--8--8-8--6--10-10-8-----|-6-8--8--8-8--6--10-10-8------6-|
A|-6-8-|------------------------|-6-8-----------------------6-6-|--------------------------6--8--|
E|-----|------------------------|-------------------------------|--------------------------------|

[Chorus]
E|---------------------------------|----------------------------|---------------------------------|
B|------9-9-------9----------------|-9-------9------------------|---------------------------------|
G|-8-10------10-8----10-8-10-------|---10-8----10-8--10--8------|---------5-5-----------5-5-------|
D|----------------------------8----|-----------------------8----|-----6-------------6--------8-6--|
A|------------------------------11-|-------------------------11-|--6-8---8-------6-8---8----------|
E|---------------------------------|----------------------------|---------------------------------|

[Drop]
E|----8-9-11-8------8-9-11-8-|-----8-9-11-8------11-9-8----|
B|-9-------------9-----------|--9------------11--------11--|
G|--8-------------8----------|---8-------------8-----------|
D|---------------------------|-----------------------------|
A|---------------------------|-----------------------------|
E|---------------------------|-----------------------------|            
Submit corrections


        Shed A Light  lessons Hard to play? Try these video lessons and learn fast Shed A Light  lessons
        
↑ Back to top | Tablatures and chords for acoustic guitar and electric guitar, ukulele, drums are parodies/interpretations of the original songs. You may use it for private study, scholarship, research or language learning purposes only