» » »

David Guetta - Every Chance We Get We Run Tabs

Artists:  A B C D E F G H I J K L M N O P Q R S T U V W X Y Z # 

Every Chance We Get We Run Tabs

(ver. 1) Click to play this song!
David Guetta
 Rating:
4.4/5 (8 votes)

 Every Chance We Get We Run  lessons Tabs too difficult? Try these video lessons and learn fast
 
                [INTRO / VERSE / CHORUS]
|---PM---------------------------------------------------------|
                              |..(repeat)......................|      
E|--------------------------------------------------------------|
B|---------15---------------------------15----------------------|
G|----------------14----------------------------14--------------|
D|---12-12----12------12--16---12-12-12-----12------12--16------|
A|--------------------------------------------------------------|
E|--------------------------------------------------------------|

[RIFF]
|..(repeat)..................................................|
|--(3x)-----------|
E|-----------------------------------12-----------------------|
B|-----15---------------15--14--15-----15--14-----------------|
G|---------14-------------------------------------------------|
D|--12---------16---------------------------------------------|
A|------------------------------------------------------------|
E|------------------------------------------------------------|
            
Submit corrections


        Every Chance We Get We Run  lessons Hard to play? Try these video lessons and learn fast Every Chance We Get We Run  lessons
        
↑ Back to top | Tablatures and chords for acoustic guitar and electric guitar, ukulele, drums are parodies/interpretations of the original songs. You may use it for private study, scholarship, research or language learning purposes only