» » »

David Guetta - Blast Off Tabs

Artists:  A B C D E F G H I J K L M N O P Q R S T U V W X Y Z # 

Blast Off Tabs

(ver. 1) Click to play this song!
David Guetta
 Rating:
3/5 (23 votes)

 Blast Off  lessons Tabs too difficult? Try these video lessons and learn fast
 
                
Intro:

E|-----------------------------------|
B|---------4-----5-----5---7---------|
G|-----3-4---4-----4-----4---6-4-3---|
D|-------------6-----6---------------|
A|---6-------------------------------|
E|-4---------------------------------|

E|-----------------------------------|
B|---------4-----5-----5---7---------|
G|-----3-4---4-----4-----4---6--~4*--|
D|-------------6-----6---------------|
A|---6-------------------------------|
E|-4---------------------------------|            
Submit corrections


        Blast Off  lessons Hard to play? Try these video lessons and learn fast Blast Off  lessons
        
↑ Back to top | Tablatures and chords for acoustic guitar and electric guitar, ukulele, drums are parodies/interpretations of the original songs. You may use it for private study, scholarship, research or language learning purposes only