» » »

David Cook - Porcelain Tabs

Artists:  A B C D E F G H I J K L M N O P Q R S T U V W X Y Z # 

Porcelain Tabs

(ver. 1) Click to play this song!
David Cook
 Rating:
4.2/5 (5 votes)

 Porcelain lessons Tabs too difficult? Try these video lessons and learn fast
 
                

-My First Tab But I Think It Is Pretty Close.

Standard Tuning

. = Palm Mute
/= Slide Up
\=Slide Down
hld=hold note/let ring
*= 1 Beat
|=Off Beat
H=Harmonic


Intro

    A        B        Ab
e|------------------------------------|
b|------------------------------------|
g|------------------------------------|
D|------------------------------------|
A|--77777777/99999999\6666666666666666
E|--55555555/77777777\4444444444444444
                              ......


    A        B       E E
e|-------------------------------------|
b|-------------------------------------|
g|-------------------------------------|
D|---------------------9--9-9--9--9999-|
A|--77777777/99999999--7--7-7--7--7777-|
E|--55555555/7777777700-00-0-00-00-----|
                     .. .. . .. ..

  -Repeat

Verse

    A       Ab      A       Ab
e|----------------------------------|
b|----------------------------------|
g|----------------------------------|
D|----------------------------------|
A|--7hld----6hld----7hld----6hld----|
E|--5hld----4hld----5hld----4hld----|
    * * * * * * * * * * * * * * * *


    A               Ab
e|----------------------------------|
b|----------------------------------|
g|----------------------------------|   x2
D|----------------------------------|
A|--77777777777777776666666666666666
E|--55555555555555554444444444444444
    .......................(........)  ()=Not Played 2nd Time


Chorus

    A        B        Ab       E
e|------------------------------------|
b|------------------------------------|
g|------------------------------------|
D|------------------------------999---|
A|--7777777999999996666666666666777---|    Note OFF Beat Changes
E|--5555555777777774444444444444------|
    * * * *|* * * *|* * * * * * * * *


    A        B       E E
e|-------------------------------------|
b|-------------------------------------|
g|-------------------------------------|
D|---------------------9--9-9--9--9999-|
A|--77777777/99999999--7--7-7--7--7777-|
E|--55555555/7777777700-00-0-00-00-----|
                     .. .. . .. ..
  -Repeat

Verse2
Chorus PLUS:

    E E
e|--------------------|
b|--------------------|
g|--------------------|
D|----9--9-9--9--9999-|
A|----7--7-7--7--7777-|
E|--00-00-0-00-00-----|
    .. .. . .. ..


Interlude (I Dont Know The Guitar One Part/Solo)

    A       Ab      A       Ab
e|----------------------------------|
b|----------------------------------|
g|----------------------------------|
D|----------------------------------|       x2
A|--7hld----6hld----7hld----6hld----|
E|--5hld----4hld----5hld----4hld----|
    * * * * * * * * * * * * * * * *

    A       Ab
e|---------------------------|
b|---------------------------|
g|---------------------------|
D|---------------------------|
A|--7hld----6666666666666666-|
E|--5hld----4444444444444444-|
    * * * * ................

    A        B        Ab        E
e|------------------------------------|
b|------------------------------------|
g|------------------------------------|
D|------------------------------999---|
A|--7777777999999996666666666666777---|    Note OFF Beat Changes
E|--5555555777777774444444444444------|
    * * * *|* * * *|* * * * * * * * *


    A        B       E E
e|-------------------------------------|
b|-------------------------------------|
g|-------------------------------------|
D|---------------------9--9-9--9--9999-|
A|--77777777/99999999--7--7-7--7--7777-|
E|--55555555/7777777700-00-0-00-00-----|
                     .. .. . .. ..
  -Repeat

Chorus Slight Changes On Second Repeat:

 -Play First Time Normally Then...
    A        B        Ab        E
e|------------------------------------|
b|------------------------------------|
g|------------------------------------|
D|------------------------------999---|
A|--777777799999999666666666HHHH777---|    For harmonic sound just place left
E|--555555577777777444444444HHHH------|    hand over strings lightly and you
    * * * *|* * * *|* * * * * * * * *     should get an "erie high pitch".


    A        B       E E
e|-------------------------------------|
b|-------------------------------------|
g|-------------------------------------|
D|---------------------9--9-9--9--9999-|
A|--77777777/99999999--7--7-7--7--7777-|
E|--55555555/7777777700-00-0-00-00-----|
                     .. .. . .. ..

    E E            A-Ab
e|--------------------|
b|--------------------|
g|--------------------|
D|----9--9-9--9--99---|    Last Two Notes Are Diffrent.Final Note(Ab) Is Short
A|----7--7-7--7--7776-|
E|--00-00-0-00-00--54-|
    .. .. . .. ..
            
Submit corrections


        Porcelain lessons Hard to play? Try these video lessons and learn fast Porcelain lessons
        
↑ Back to top | Tablatures and chords for acoustic guitar and electric guitar, ukulele, drums are parodies/interpretations of the original songs. You may use it for private study, scholarship, research or language learning purposes only