» » »

David Cook - Lie Tabs

Artists:  A B C D E F G H I J K L M N O P Q R S T U V W X Y Z # 

Lie Tabs

(ver. 1) Click to play this song!
David Cook
 Rating:
4/5 (8 votes)

 Lie lessons Tabs too difficult? Try these video lessons and learn fast
 
                Tunning: standard

Intro 	
e|----------------------------------------------------------------------|
B|----------------------------------------------------------------------|
G|-----5-4-5-----5-4-5---4-5-4-5-7-5-----5-4-5-----5-4-5--4-5-4-5-7-5---|
D|-5-5-------5-5-------5-------------5-5-------5-5-------5------------5-|
A|----------------------------------------------------------------------|
E|----------------------------------------------------------------------|


Verse 1
Am                   C               F
You whispered that you were getting tired,
      Am            C            F           G
Got a look in your eye, looks a lot like goodbye. 
     Am	           C        F
Hold on to your secrets tonight. 
Em     	                F
Don't want to know I'm ok with this silence 
      Em                         F       G
It's truth that I don't want to hear 

Verse 2
Am                 C             F
You're hiding regret in your smile
            Am            C                 F           G
There's a storm in your eyes that's been coming for awhile
     Am          C             F
Hang on to the past tense tonight
Em                     F
Don't say a word, I'm ok with the quiet.
Em                                  F      G 
The truth is gonna change everything. 

Chorus 
Am                  C                F
So lie to me and tell me that it's gonna be alright 
Am                 C                   F              G
So lie to me and tell me that we'll make it through the night 
        Am           C	              F
I don't mind if you wait before you tear me apart 
Am	G/B     C     G/B
Look me in the eye, 
F     G	  Am   
Lie, lie, lie. 

e|--------------------------------------------------------------------------|
B|--------------------------------------------------------------------------|
G|-----5-4-5-----5-4-5---4-5-4-5--7-5------5-4-5------5-4-5---4-5-4-5---7-5-|
D|-5-5-------5-5-------5---------5-----5-5--------5-5-------5---------5-----|
A|--------------------------------------------------------------------------|
E|--------------------------------------------------------------------------|

Verse 3

  Am                C            F
I know that there's no turning back.
      Am           C                   F                       G      
If we put too much light on this we'll see through all the cracks. 
      Am          C                F
Let's stay in the dark one more night. 
Em                     F
Don't want to know I'm ok with the silence. 
       Em                            F       G
It the truth that I don't want to hear. 

Chorus 

   Am            C                    F
So lie to me and tell me that it's gonna be alright 
   Am            C                    F                   G
So lie to me and tell me that we'll make it through the night 
        Am          C               F
I don't mind if you wait before you tear me apart 
   Am     G/B      C    G/B 
So look me in the eye, 
    F    G    Am    
And lie, lie, lie. 

Bridge

Am            C		      F
Don't want to believe in this ending
        Am           C		F 
Let the cameras roll on, keep pretending 
    Am		C	F
Tomorrow's all wrong if you walk away 
      G	
Just stay 

e|---------------------------------------------------------------|
B|---------------------------------------------------------------|
G|-----5-4-5-----5-4-5-----5-4-5-----5-4-5-----5-4-5-----5-4-5---|
D|-5-5-------5-5-------5-5-------5-5-------5-5-------5-5-------5-|
A|---------------------------------------------------------------|
E|---------------------------------------------------------------|

Chorus 

   Am            C                    F
So lie to me and tell me that it's gonna be alright 
   Am            C                    F                   G
So lie to me and tell me that we'll make it through the night 
        Am          C               F
I don't mind if you wait before you tear me apart 
   Am     G/B      C    G/B 
So look me in the eye, 
    F    G    Am    
And lie, lie, lie. 

Chorus 

   Am            C                    F
So lie to me and tell me that it's gonna be alright 
   Am            C                    F                   G
So lie to me and tell me that we'll make it through the night 
        Am          C               F
I don't mind if you wait before you tear me apart 
   Am     G/B      C    G/B 
So look me in the eye, 
    F       
And lie, 
    G
And lie, 
 Am   C F,Am C F
lie. 



                                                                BallY RockS!!
            
Submit corrections


        Lie lessons Hard to play? Try these video lessons and learn fast Lie lessons
        
↑ Back to top | Tablatures and chords for acoustic guitar and electric guitar, ukulele, drums are parodies/interpretations of the original songs. You may use it for private study, scholarship, research or language learning purposes only