Home » D » David Cook »

David Cook - Avalanche Bass

Artists:  A B C D E F G H I J K L M N O P Q R S T U V W X Y Z # 

Avalanche Bass

(ver. 1) Click to play this song!
David Cook
 _____________________________________________________________________
|                                                                     |
|   ~ = let ring                                                      |
|   \ = slide down                                                    |
|   / = slide up                                                      |
|   h = hammer on                                                     |
|   p = pull off                                                      |
|   . = palm mute                                                     |
|(x1) = how many times you hit the note (no change in rythem)         |
|  x1 = how many times you hit the set                                |
|  1> = liten to song and hit as long as needed (may change in rythem)|
|                                                                     |
|_____________________________________________________________________|


intro\verse 1
|-------------------------------------------------|
|-10(x64)-14(x16)-12(x16)-10(x32)-14(x16)-12(x16)-|
|-------------------------------------------------|
|-------------------------------------------------|

prechorus
and in this rush.....
|----------|
|----------|
|-5(x8)-8~-|
|----------|

chorus
carry me......
|--------------|
|--------------|    
|-888-10101010-| 
|--------------|
 down........
|-------------|
|-------------| 
|-3>----------| 
|----5>-7>-3>-|

tell me tonight.......
|------------------|
|------------------|
|3>----------------|
|---5>-7>-0>-3>-5~-|

verse 2
in your avalanche.........
|-------------|
|-------------|
|-------3>----|
|-3>-7>----5>-|

these scars we wear.......
|-------------|
|-------------|
|-------3>----|
|-3>-7>----5>-|

swept up in this emotion.......
|-------------|
|-------------|
|-------3>-5>-|
|-3>-7>-------|

prechorus
cuz we are led to the edge.......
|---------------------------|
|---------------------------|
|-0-0-00-00-0000-5-5-55-55--|
|---------------------------|

chorus
carry me .....
|-------------------|
|-------------------|
|-------------------| 
|-5555/10>-5>-7>-3>-|
down......
|-------------|
|-------------|
|-3>----------|
|----5>-7>-3>-|
tell me tonight....
|------------------|
|------------------|
|-3>---------------|
|----5>-7>-0>-3>-5~|

bridge
in your avalanche......
|--------------|
|--------------|
|-3>-10>-7>-5>-|
|--------------|
crashin down crashin down.......
|--------|
|--------|
|--------|
|-3>-5>~-|

final chorus
carry me down........ 
|------|
|-rest-|
|------|
|------|
tell me tonight.......
|-------------|
|-------------|
|-3>----------|
|----5>-7>-0>-|
carry me down.........
|-------------|
|-------------|
|-3>----------|
|----5>-7>-3>-|
tell me tonight..........
|-------------------------------|
|-------------------------------|x1
|-3>-------------------3>-5>-8>-|
|----5>-7>-0>-3>-5>-7>----------|

outro
i feel alive beside you......
|------------|
|------------|
|------3~----|
|3~-7~----5~-|
            
Submit corrections

↑ Back to top | Tablatures and chords for acoustic guitar and electric guitar, ukulele, drums are parodies/interpretations of the original songs. You may use it for private study, scholarship, research or language learning purposes only