Home » D » Dave Van Ronk »

Dave Van Ronk - Come Back Baby Tabs

Artists:  A B C D E F G H I J K L M N O P Q R S T U V W X Y Z # 

Come Back Baby Tabs

(ver. 1) Click to play this song!
Dave Van Ronk

Tuning:

e|------3---3-----5---5---5-|-------9----8-7-7---7---7-|---------------------|
B|--------------------------|--/-10---10---8-8-----8---|---------------------|
G|--2/4---4---4/6-------6---|--------------------------|---------------------|
D|--------------------------|--------------------------|---------------------|
A|------------0-----0-----0-|--------------0---0-----0-|---------------------|
E|--------------------------|--------------------------|---------------------|

e|--5-3-0---------------|--------------------------|-------------------------|
B|--5-------5-3---3---3-|-----3b4br3-1---1-----1---|-------------------------|
G|--------2-2-2-----0-2-|--2-----------2-2---2---2-|-------------------------|
D|----------------------|--------------3---------3-|-------------------------|
A|--0-------------------|--------------------------|-------------------------|
E|----------3---3-----2-|-----2--------1---1-----1-|-------------------------|

e|--------------3---3---3-|--5-3-0-----------0---|---------------------------|
B|------1-3-3/5-------5---|--5-------5-3---3---3-|---------------------------|
G|----3-------------------|--------2-4-4-------4-|---------------------------|
D|----2-------------------|----------------------|---------------------------|
A|----------0-----0-----0-|--0-------------------|---------------------------|
E|--1-1-------------------|----------0---0-----0-|---------------------------|

e|----------------5-3-0-|------------------|----5---5---5-|------------------|
B|-----3b4br3-1---2-----|----1---0h1p0-----|----2-----2-2-|------------------|
G|--2-----------2-------|--2-2---------2p0-|--2-----------|------------------|
D|----------------------|------------------|--------------|------------------|
A|--------------0-------|------------------|--0---0-----0-|------------------|
E|-----2----------------|--2---2-----------|--------------|------------------|             
Submit corrections

↑ Back to top | Tablatures and chords for acoustic guitar and electric guitar, ukulele, drums are parodies/interpretations of the original songs. You may use it for private study, scholarship, research or language learning purposes only