Home » D » Dave Mason »

Dave Mason - The Lonely One Tabs

Artists:  A B C D E F G H I J K L M N O P Q R S T U V W X Y Z # 

The Lonely One Tabs

(ver. 1) Click to play this song!
Dave Mason
INTRO]

E|-------2---------|-------3---------|-------3---------|-------0---------|
B|-----3------3----|------------3----|------------3----|------------3----|
G|---2-------------|-----2-----------|-----0-----------|-----0-----------| 4x
D|-0---------------|---0-------------|---0-------------|---0-------------|
A|-----------------|-3---------------|-2---------------|-1---------------|
E|-----------------|-----------------|-----------------|-----------------|
                                                              There've been

moments of     despair There've been times I couldn't  care   I was the
E|-------2---------|-------3---------|-------3---------|-------0---------|
B|-----3------3----|------------3----|------------3----|------------3----|
G|---2-------------|-----2-----------|-----0-----------|-----0-----------|
D|-0---------------|---0-------------|---0-------------|---0-------------|
A|-----------------|-3---------------|-2---------------|-1---------------|
E|-----------------|-----------------|-----------------|-----------------|

 lonely one                                                  Then you
E|-------2---------|-------3---------|-------3---------|-------0---------|
B|-----3------3----|------------3----|------------3----|------------3----|
G|---2-------------|-----2-----------|-----0-----------|-----0-----------|
D|-0---------------|---0-------------|---0-------------|---0-------------|
A|-----------------|-3---------------|-2---------------|-1---------------|
E|-----------------|-----------------|-----------------|-----------------|

show'd myself   to me     And I     found I  needn't   be       Another
E|-------2---------|-------3---------|-------3---------|-------0---------|
B|-----3------3----|------------3----|------------3----|------------3----|
G|---2-------------|-----2-----------|-----0-----------|-----0-----------|
D|-0---------------|---0-------------|---0-------------|---0-------------|
A|-----------------|-3---------------|-2---------------|-1---------------|
E|-----------------|-----------------|-----------------|-----------------|

lonely one
E|-------2---------|-------3---------|-------3---------|-------0---------|
B|-----3------3----|------------3----|------------3----|------------3----|
G|---2-------------|-----2-----------|-----0-----------|-----0-----------|
D|-0---------------|---0-------------|---0-------------|---0-------------|
A|-----------------|-3---------------|-2---------------|-1---------------|
E|-----------------|-----------------|-----------------|-----------------|


[CHORUS]

A              G
Running in the wilderness
    D                F#m
And dreaming in the sun
A             G
Crying to the sky at night
    D            F#m
For Gods eternal Son

        Yeah...Yeah
E|-----------------|-----------------|-----------------|-----------------|
B|-----------------|-----------------|-----5-----5-----|-----7-----8-----|
G|-----6-----6-----|-----7-----7-----|-----------------|---------------0-|
D|---7-----7-----7-|---7-----7-----7-|---7-----7-----7-|---7-----9---9---|
A|-0-----0-----0---|-0-----0-----0---|-0-----0-----0---|-0-----0---------|
E|-----------------|-----------------|-----------------|-----------------|

E|-------2---------|-------3---------|-------3---------|-------0---------| repeat 2x
B|-----3------3----|------------3----|------------3----|------------3----|
G|---2-------------|-----2-----------|-----0-----------|-----0-----------|
D|-0---------------|---0-------------|---0-------------|---0-------------|
A|-----------------|-3---------------|-2---------------|-1---------------|
E|-----------------|-----------------|-----------------|-----------------|

Through the truth and through the lies
There is really no disguise
To hide the lonely ones
You can find them on a card
being matched with other hearts
The really lonely ones

E|-------2---------|-------3---------|-------3---------|-------0---------|
B|-----3------3----|------------3----|------------3----|------------3----|
G|---2-------------|-----2-----------|-----0-----------|-----0-----------|
D|-0---------------|---0-------------|---0-------------|---0-------------|
A|-----------------|-3---------------|-2---------------|-1---------------|
E|-----------------|-----------------|-----------------|-----------------|


[CHORUS]
A              G
Running in the wilderness
    D                F#m
And dreaming in the sun
A                 G
and Crying to the sky at night
    D            F#m
For Gods eternal Son

       Oh Yeah...Yeah...Yeah
E|-----------------|-----------------|-----------------|-----------------|
B|-----------------|-----------------|-----5-----5-----|-----7-----8-----|
G|-----6-----6-----|-----7-----7-----|-----------------|---------------0-|
D|---7-----7-----7-|---7-----7-----7-|---7-----7-----7-|---7-----9---9---|
A|-0-----0-----0---|-0-----0-----0---|-0-----0-----0---|-0-----0---------|
E|-----------------|-----------------|-----------------|-----------------|

[BRIDGE]

 G                A                  D                 D
                                                      |--2---2----------|
   Inside your   rooms,            behind your walls  |---3---3---------|
   I see your    face, you know I    hear your call   |-----------2-----|
   Is this a     madness that's been left unchecked   |-0---2---4-------|
                                                      |-----------------|
                                                      |-----------------|

G                  A                 D
   Or will there   always be just    promises?

E|-------2---------|-------3---------|-------3---------|-------0---------| 2x
B|-----3------3----|------------3----|------------3----|------------3----|
G|---2-------------|-----2-----------|-----0-----------|-----0-----------|
D|-0---------------|---0-------------|---0-------------|---0-------------|
A|-----------------|-3---------------|-2---------------|-1---------------|
E|-----------------|-----------------|-----------------|-----------------|


[CHORUS]

A              G
Running in the wilderness
    D                F#m
And dreaming in the sun
A                 G
and Crying to the sky at night
    D            F#m
For Gods eternal Son

        Yeah...Yeah
E|-----------------|-----------------|-----------------|-----------------|
B|-----------------|-----------------|-----5-----5-----|-----7-----8-----|
G|-----6-----6-----|-----7-----7-----|-----------------|---------------0-|
D|---7-----7-----7-|---7-----7-----7-|---7-----7-----7-|---7-----9---9---|
A|-0-----0-----0---|-0-----0-----0---|-0-----0-----0---|-0-----0---------|
E|-----------------|-----------------|-----------------|-----------------|

E|-------2---------|-------3---------|-------3---------|-------0---------| 2x
B|-----3------3----|------------3----|------------3----|------------3----|
G|---2-------------|-----2-----------|-----0-----------|-----0-----------|
D|-0---------------|---0-------------|---0-------------|---0-------------|
A|-----------------|-3---------------|-2---------------|-1---------------|
E|-----------------|-----------------|-----------------|-----------------|

There are men that hold the key
To set everybody free
But they're lonely ones
And if the day should come
When they all can work as one
There'll be a destiny      Yes I know

E|-------2---------|-------3---------|-------3---------|-------0---------|
B|-----3------3----|------------3----|------------3----|------------3----|
G|---2-------------|-----2-----------|-----0-----------|-----0-----------|
D|-0---------------|---0-------------|---0-------------|---0-------------|
A|-----------------|-3---------------|-2---------------|-1---------------|
E|-----------------|-----------------|-----------------|-----------------|


[CHORUS]

A              G
Running in the wilderness
    D                F#m
And dreaming in the sun
A                 G
and Crying to the sky at night
    D            F#m
For Gods eternal Son

        Yeah...Yeah
E|-----------------|-----------------|-----------------|-----------------|
B|-----------------|-----------------|-----5-----5-----|-----7-----8-----|
G|-----6-----6-----|-----7-----7-----|-----------------|---------------0-|
D|---7-----7-----7-|---7-----7-----7-|---7-----7-----7-|---7-----9---9---|
A|-0-----0-----0---|-0-----0-----0---|-0-----0-----0---|-0-----0---------|
E|-----------------|-----------------|-----------------|-----------------|


E|-------2---------|-------3---------|-------3---------|-------0---------| repeat
B|-----3------3----|------------3----|------------3----|------------3----|   and
G|---2-------------|-----2-----------|-----0-----------|-----0-----------|  Fade out
D|-0---------------|---0-------------|---0-------------|---0-------------|
A|-----------------|-3---------------|-2---------------|-1---------------|
E|-----------------|-----------------|-----------------|-----------------|            
Submit corrections

↑ Back to top | Tablatures and chords for acoustic guitar and electric guitar, ukulele, drums are parodies/interpretations of the original songs. You may use it for private study, scholarship, research or language learning purposes only