Home » D » Dave Mason »

Dave Mason - Maybe Tabs

Artists:  A B C D E F G H I J K L M N O P Q R S T U V W X Y Z # 

Maybe Tabs

(ver. 1) Click to play this song!
Dave Mason
Tune 1/2 step down        From: "It's Like You Never Left"   (Dave Mason)


Intro:

     Cm                             Fm
eb|--------3--------------3--------|------1--------------1--------|
Bb|------4---4----------4---4------|----1---1----------1---1------|
Gb|----5-------5------5-------5----|--1-------1------1-------1----|
Db|--------------5--------------5--|------------3--------------3--|
Ab|--3--------------3--------------|------------------------------|
Eb|--------------------------------|1--------------1--------------|

Verse:

     Cm                               Fm
eb|---------3--------------3---------|-------1--------------1---------|
Bb|-------4---4----------4---4-------|-----1---1----------1---1-------|
Gb|*----5-------5------5-------5-----|---1-------1------1-------1----*| <<
Db|*--------------5--------------5---|-------------3--------------3--*| 3x
Ab|--3--------------3----------------|--------------------------------|
Eb|----------------------------------|-1--------------1---------------|

     G#                              Bb
eb|---------4--------------4--------|-------1--------------1---------|
Bb|-------4---4----------4---4------|-----3---3----------3---3-------|
Gb|*----5-------5------5-------5----|---3-------3------3-------3-----|
Db|*--------------6--------------6--|-------------3--------------3---|
Ab|---------------------------------|-1-------------1----------------|
Eb|--4--------------4---------------|--------------------------------|

     Cm                               Cm
eb|--------3--------------3--------|--------3--------------3---------|
Bb|------4---4----------4---4------|------4---4----------4---4-------|
Gb|----5-------5------5-------5----|----5-------5------5-------5----*| <<
Db|--------------5--------------5--|--------------5--------------5--*| 1x
Ab|--3--------------3--------------|--3--------------3---------------|
Eb|--------------------------------|---------------------------------|

Bridge:

     Bb                                 Bb
eb|---------1--------------1---------|--------1--------------1--------|
Bb|-------3---3----------3---3-------|------3---3----------3---3------|
Gb|*----3-------3------3-------3-----|----3-------3------3-------3----|
Db|*--------------3--------------3---|--------------3--------------3--|
Ab|--1--------------1----------------|--1--------------1--------------|
Eb|----------------------------------|--------------------------------|

     Cm                               Cm
eb|--------3--------------3--------|--------3--------------3---------|
Bb|------4---4----------4---4------|------4---4----------4---4-------|
Gb|----5-------5------5-------5----|----5-------5------5-------5----*| <<
Db|--------------5--------------5--|--------------5--------------5--*| 3x
Ab|--3--------------3--------------|--3--------------3---------------|
Eb|--------------------------------|---------------------------------|

     Fm                               Fm
eb|---------1--------------1--------|--------1--------------1--------|
Bb|-------1---1----------1---1------|------1---1----------1---1------|
Gb|*----1-------1------1-------1----|----1-------1------1-------1----|
Db|*--------------3--------------3--|--------------3--------------3--|
Ab|---------------------------------|--------------------------------|
Eb|--1--------------1---------------|--1--------------1--------------|


     G                                G
eb|--------3--------------3--------|--------3--------------0---------|
Bb|------0---0----------0---0------|------0---0----------0---0-------|
Gb|----0-------0------0-------0----|----0-------0------0-------0----*| <<
Db|--------------0--------------0--|--------------0--------------0--*| 1x
Ab|--------------------------------|---------------------------------|
Eb|--3--------------3--------------|--3--------------3---------------|


Solo:

 Ok, you repeat the verse chords i don't know how many times and then you repeat the 
then repeat the Verse and you're done! (there is also a second guitar)

Guitar 2:  Lick in verses

eb|--------------------|    guitar 2 just basically does whatever it can to
Bb|--------------------|    match guitar 1...during the solo, guitar 2 does
Gb|--------------------|    a bunch of scales in Cm...i think guitar 1 is
Db|-------------3h5p3--|    all you'll really need.
Ab|--3----h6p3---------|
Eb|--------------------|

~~~~~~~~~~~~~~~~~~~~~~~~~~~~~Alternate~~~~~~~~~~~~~~~~~~~~~~~~~~~~~~~~~~~~~~


Use the same rhythym as listed in the 1/2 step down version...this is the standard 
version


Intro: (4/4 count)

  Bm | Em


Verse:

  ||: Bm | Bm | Em | Em :||  << 3x

  ||: G | A | Bm | Bm : ||  << 1x


Bridge:

  ||: A | A | Bm | Bm :||  << 3x

  ||: Em | Em | F# | F# :||  << 1x


Guitar 2 Lick:

  e|---------------------|
  B|---------------------|
  G|---------------------|
  D|--------------2h4p2--|
  A|--2-----h5p2---------|
  E|---------------------|
            
Submit corrections

↑ Back to top | Tablatures and chords for acoustic guitar and electric guitar, ukulele, drums are parodies/interpretations of the original songs. You may use it for private study, scholarship, research or language learning purposes only