Home » D » Datarock »

Datarock - Fa Fa Fa Bass

Artists:  A B C D E F G H I J K L M N O P Q R S T U V W X Y Z # 

Fa Fa Fa Bass

(ver. 1) Click to play this song!
Datarock
(Intro)
----------------------------------------------------------------------------
			     Fa-Fa-Fa - Datarock
--------------------------------------------------------------------------


Tuning:Standard (EADG)

Pretty simpel intro and it sounds great.
The song starts of with a short moment of drums and then directly after that the bass 
beggins:

G|-------7-7------5---------7-7--4-4----4--------------------------|
D|------------5-7--------------------5-----------------------------|
A|----5--------------5---5-----------------------------------------|
E|-----------------------------------------------------------------|

G|-------7-7------5----------7-7-------5-7-------------------------|
D|------------5-7-----------------5-7------------------------------|
A|----5--------------5----5----------------------------------------|
E|-----------------------------------------------------------------|

| /  slide up
| \  slide down
| h  hammer-on
| p  pull-off
| ~  vibrato
| +  harmonic
| x  Mute note
=======================================================================
            
Submit corrections

↑ Back to top | Tablatures and chords for acoustic guitar and electric guitar, ukulele, drums are parodies/interpretations of the original songs. You may use it for private study, scholarship, research or language learning purposes only