» » »

Darren Korb - Tabs

Artists:  A B C D E F G H I J K L M N O P Q R S T U V W X Y Z # 

Tabs

(ver. 1) Click to play this song!
Darren Korb
 Rating:
4.4/5 (11 votes)


  lessons Tabs too difficult? Try these video lessons and learn fast
 
                
[Intro]
e|--0-2-5-7--5-7-5-2-2----0-2-5-7-9-12--9-7-9----7-9-12-14--12-9--7-5-2--0-2--5-0--0-2-|
B|-------------------------------------------------------------------------------------|
G|-------------------------------------------------------------------------------------|
D|-------------------------------------------------------------------------------------|
A|-------------------------------------------------------------------------------------|
E|-------------------------------------------------------------------------------------|

[First Verse Part 1]
Before the salt and roiling sea, the moon began to cry.
The valley ran with sorrowfull tears and filled the waters high.

      F#m                       C#m                              E          F#m
e|----2----2----2----2----1----1----1----1----2----2----2----2----0----2----2----2----2-|
B|----2----2----2----2----2----2----2----2----2----2----2----2----0----2----2----2----2-|
G|----2----2----2----2----1----1----1----1----2----2----2----2----1----2----2----2----2-|
D|----4----4----4----4----3----3----3----3----4----4----4----4----2----4----4----4----4-|
A|--4----4----4----4----4----4----4----4----4----4----4----4----2----4----4----4----4---|
E|--------------------------------------------------------------------------------------|

[First Verse Part 2]

Here you play exactly the same, just like in part 1.

The Misty Morning over the brine belies a leaden sky.
The stars all hide away from the chill until the evening rise.

      F#m                       C#m                              E          F#m
e|----2----2----2----2----1----1----1----1----2----2----2----2----0----2----2----2----2-|
B|----2----2----2----2----2----2----2----2----2----2----2----2----0----2----2----2----2-|
G|----2----2----2----2----1----1----1----1----2----2----2----2----1----2----2----2----2-|
D|----4----4----4----4----3----3----3----3----4----4----4----4----2----4----4----4----4-|
A|--4----4----4----4----4----4----4----4----4----4----4----4----2----4----4----4----4---|
E|--------------------------------------------------------------------------------------|

[Between verses]
Ooooh....
                F#m
e|----7--------2----2----2-----7-------2----2----2--|
B|--5---5-7----2----2----2---5--5-7----2----2----2--|
G|-------------2----2----2-------------2----2----2--|    I did'nt count, but you have to do it several times.
D|-------------4----4----4-------------4----4----4--|
A|-----------4----4----4-------------4----4----4----|
E|--------------------------------------------------|

[Second Verse]
Played just like the first one. Last sound played a bit slower.

The place where Plurnes scuttled her foe, the doomed ship still resides.
The titan met her end on it's prow, forsaken by the tides.
In death she leaves her stain on the place, the tempest never dies.
Her final throes in shivers and shakes, a thousand years gone by.

[Outro]
                F#m
e|----7--------2----2----2-----7-------2----2----2--|
B|--5---5-7----2----2----2---5--5-7----2----2----2--|
G|-------------2----2----2-------------2----2----2--|    You have to repeat it just like in the last one.
D|-------------4----4----4-------------4----4----4--|
A|-----------4----4----4-------------4----4----4----|
E|--------------------------------------------------|            
Submit corrections



         lessons Hard to play? Try these video lessons and learn fast  lessons
        
↑ Back to top | Tablatures and chords for acoustic guitar and electric guitar, ukulele, drums are parodies/interpretations of the original songs. You may use it for private study, scholarship, research or language learning purposes only