Home » D » Darren Criss »

Darren Criss - Fkn Around Tabs

Artists:  A B C D E F G H I J K L M N O P Q R S T U V W X Y Z # 

Fkn Around Tabs

(ver. 1) Click to play this song!
Darren Criss
[Intro]
 
e|----------------------------------|
B|----------------------------------|
G|----------------------------------|
D|----------------------------------|
A|----------------------------------|
E|---9-9--9-99-9---2-2--2-27-7------|
 
Oh, oh, oh, oh
 
 
[Verse 1]
 
e|----------------------------------|
B|----------------------------------|
G|----------------------------------|
D|----------------------------------|
A|----------------------------------|
E|---9-9--9-99-9---2-2--2-27-7------|
 
Ask me if I'll come around
 
You wonder how I feel about it
 
What you think? Uh
 
Call you up to call you out
 
You wonder if I'm real about it
 
What you think? Uh
 
 
[Pre-Chorus]
 
e|----------------------------------|
B|----------------------------------|
G|----------------------------------|
D|----------------------------------|
A|----------------------------------|
E|---9-9--9-99-9---2-2--2-27-7------|
 
All the time you took from my pocket
 
All the love I gave but you dropped it
 
Oh my god, I know I can't stop it now
 
All the fights, fires you started
 
Stab my back, say you're a martyr
 
Oh my god, I know I can't stop it now
 
 
[Chorus]
 
e|---------------------------------------------------------------------------|
B|---7-7p5------7-7p5--------------------------------------------------------|
G|---------6----------6------------------------------------------------------|
D|---------------------------------------------------------------------------|
A|---------------------------------------------------------------------------|
E|---------------------------------------------------------------------------| x2
 
e|---------------------------------------------------------------------------|
B|---7-7p5------7-7p5--------------------9-9p7------7-7p5--------------------|
G|---------6----------6------------------------9----------6------------------|
D|---------------------------------------------------------------------------|
A|---------------------------------------------------------------------------|
E|---------------------------------------------------------------------------| x2
 
You're f**kin' around
 
Don't know why I stay
 
f**kin' around
 
I can't get away
 
You're f**kin' around
 
Kills me every day
 
f**kin' around
 
f**kin' around, bringing me down, yeah, I'm runnin'
 
 
[Verse 2]
 
e|----------------------------------|
B|----------------------------------|
G|----------------------------------|
D|----------------------------------|
A|----------------------------------|
E|---9-9--9-99-9---2-2--2-27-7------|
 
I can't believe that I'm still lookin' through your pictures
 
Am I feeling good about it?
 
What you think?
 
 
[Pre-Chorus]
 
e|----------------------------------|
B|----------------------------------|
G|----------------------------------|
D|----------------------------------|
A|----------------------------------|
E|---9-9--9-99-9---2-2--2-27-7------|
 
Check myself, I hate that I need this
 
Tell myself that I can defeat this
 
Every time you leave me wanting you more
 
Tell you off, I swear that I mean it
 
Come right back, tear me to pieces
 
Throw my hands up, oh, sweet Jesus who am I doing this for?
 
 
[Chorus]
 
e|---------------------------------------------------------------------------|
B|---7-7p5------7-7p5--------------------------------------------------------|
G|---------6----------6------------------------------------------------------|
D|---------------------------------------------------------------------------|
A|---------------------------------------------------------------------------|
E|---------------------------------------------------------------------------| x2
 
e|---------------------------------------------------------------------------|
B|---7-7p5------7-7p5--------------------9-9p7------7-7p5--------------------|
G|---------6----------6------------------------9----------6------------------|
D|---------------------------------------------------------------------------|
A|---------------------------------------------------------------------------|
E|---------------------------------------------------------------------------| x2
 
 
You're f**kin' around
 
Don't know why I stay
 
f**kin' around
 
I can't get away
 
You're f**kin' around
 
Kills me every day
 
f**kin' around
 
f**kin' around, bringing me down, yeah, I'm runnin'
 
 
[Solo]
 
e|---------------------------------------------------------------------------|
B|---------------------------------------------------------------------------|
G|--------------4-5-----7-7-5-4---4------------------------------------------|
D|----6-6-4-66-----------------------5-4-------------------------------------|
A|------------------------------3--------------------------------------------|
E|---------------------------------------------------------------------------| x2
 
 
[Bridge]
 
Oh my god, I know I can't stop it
 
Oh my god, I know I can't stop it now
 
 
[Chorus]
 
e|---------------------------------------------------------------------------|
B|---7-7p5------7-7p5--------------------------------------------------------|
G|---------6----------6------------------------------------------------------|
D|---------------------------------------------------------------------------|
A|---------------------------------------------------------------------------|
E|---------------------------------------------------------------------------| x2
 
e|---------------------------------------------------------------------------|
B|---7-7p5------7-7p5--------------------9-9p7------7-7p5--------------------|
G|---------6----------6------------------------9----------6------------------|
D|---------------------------------------------------------------------------|
A|---------------------------------------------------------------------------|
E|---------------------------------------------------------------------------| x2
 
 
You're f**kin' around
 
Don't know why I stay
 
f**kin' around
 
I can't get away
 
You're f**kin' around
 
Kills me every day
 
f**kin' around
 
f**kin' around, bringing me down, yeah, I'm runnin'
 
 
[Outro]
 
e|---------------------------------------------------------------------------|
B|---------------------------------------------------------------------------|
G|--------------4-5-----7-7-5-4---4------------------------------------------|
D|----6-6-4-66-----------------------5-4-------------------------------------|
A|------------------------------3--------------------------------------------|
E|---------------------------------------------------------------------------| x4
 
Oh, oh, oh, oh
 
f**kin' around, bringing me down, yeah, I'm runnin'
            
Submit corrections

↑ Back to top | Tablatures and chords for acoustic guitar and electric guitar, ukulele, drums are parodies/interpretations of the original songs. You may use it for private study, scholarship, research or language learning purposes only