Home » D » Darlene Zschech »

Darlene Zschech - In Jesus Name Tabs

Artists:  A B C D E F G H I J K L M N O P Q R S T U V W X Y Z # 

In Jesus Name Tabs

(ver. 1) Click to play this song!
Darlene Zschech
e|------7------------7----|
B|--------10-7---------10-|
G|--7-9--------9-7-9------|
D|------------------------|
A|------------------------|
E|------------------------|

e|------7------------7----|
B|--------10-7---------10-|
G|--7-9--------9-7-9------|
D|------------------------|
A|------------------------|
E|------------------------|

e|------7------------7----|
B|--------10-7---------10-|
G|--7-9--------9-7-9------|
D|------------------------|
A|------------------------|
E|------------------------|

e|------7------------7----|
B|--------10-7---------10-|
G|--7-9--------9-7-9------|
D|------------------------|
A|------------------------|
E|------------------------|            
Submit corrections

↑ Back to top | Tablatures and chords for acoustic guitar and electric guitar, ukulele, drums are parodies/interpretations of the original songs. You may use it for private study, scholarship, research or language learning purposes only