» » »

Darkness - Barbarian Tabs

Artists:  A B C D E F G H I J K L M N O P Q R S T U V W X Y Z # 

Barbarian Tabs

(ver. 1) Click to play this song!
Darkness
 Rating:
4/5 (4 votes)

 Barbarian  lessons Tabs too difficult? Try these video lessons and learn fast
 
                Tuning: EADGBE

Intro
e|---------------------------------------------------------------|
B|---------------------------------------------------------------|
G|---------------------------------------------------------------|
D|---------------------------------6---6-6-----------------------|
A|-------------------------4---4-5-7-5-7-7-5--9-9-8-8--7-5-------|
E|-/7-0-0-0-/7-0-0-6-6-7-7---7----------------7-7-6-6--5-3-------|

Verse 0:44

e|---------------------------------------------------------------|
B|------------3--------------7-7-7-7-7-5--7--9-------------------|
G|------------2--------------7-7-7-7-7-6--7--9-------------------|
D|--2---------0--2-----------7-7-7-7-7-7--7--9-------------------| x2
A|--2------------2-----------------------------------------------|
E|--0-0-0-0-0----0-0-0-0-0---------------------------------------|


e|---------------------------------------------------------------|
B|-2---------5--2----------10-10-10-10-10-10--12-12-12-12--------|
G|-2---------5--2----------10-10-10-10-10-10--12-12-12-12--------| x2
D|-2------------2----------10-10-10-10-10-10--12-12-12-12--------|
A|-0-0-0-0-0----0-0-0-0-0----------------------------------------|
E|---------------------------------------------------------------|

 Chorus

  Guitar 1
e|---------------------------------------------------------------|
B|---------------------------------------------------------------|
G|---------------------------------------------------------------|
D|---------------------------------6---6-6-----------------------|
A|-------------------------4---4-5-7-5-7-7-5--9-9-8-8--7-5-------|
E|-/7-0-0-0-/7-0-0-6-6-7-7---7----------------7-7-6-6--5-3-------|

 Guitar 2
e|-12/--12/------------------------------------------------------|
B|-12/--12/------------------------------------------------------|
G|---------------------------------------------------------------|
D|---------------------------------------------------------------|
A|---------------------------------------------------------------|
E|---------------------------------------------------------------|

Verse 1:26

e|---------------------------------------------------------------|
B|------------3--------------7-7-7-7-7-5--7--9-------------------|
G|------------2--------------7-7-7-7-7-6--7--9-------------------|
D|--2---------0--2-----------7-7-7-7-7-7--7--9-------------------| x2
A|--2------------2-----------------------------------------------|
E|--0-0-0-0-0----0-0-0-0-0---------------------------------------|


e|-----------------------------5----------7----|
B|-2---------5--2----------------6----------8--|
G|-2---------5--2------------5-----5----7-----7| x2
D|-2------------2------------------------------|
A|-0-0-0-0-0----0-0-0-0-0----------------------|
E|---------------------------------------------|

 Chorus

  Guitar 1
e|---------------------------------------------------------------|
B|---------------------------------------------------------------|
G|---------------------------------------------------------------|
D|---------------------------------6---6-6-----------------------|
A|-------------------------4---4-5-7-5-7-7-5--9-9-8-8--7-5-------|
E|-/7-0-0-0-/7-0-0-6-6-7-7---7----------------7-7-6-6--5-3-------|

 Guitar 2
e|-12/--12/------------------------------------------------------|
B|-12/--12/------------------------------------------------------|
G|---------------------------------------------------------------|
D|---------------------------------------------------------------|
A|---------------------------------------------------------------|
E|---------------------------------------------------------------|

Bridge 2:08
 Guitar 1
e|-------|
B|-----3-|
G|-----3-| repeat
D|-2---1-|
A|-2-----|
E|-0-----|

 Guitar 2
e|---12h13p-12-12h13p12-12h13p12--|
B|--------------------------------|
G|--------------------------------|
D|--------------------------------|
A|--------------------------------|
E|--------------------------------|

                                             Hold bend
 Solo 2:38                                   and play
e|---------------------------------------15b16-16-16-15b16----------------------------|
B|-14b15r14-12p11--11------12-----14-----14b15-15-15-14b15---14b15r14p12--14-14b15-12-|
G|-----------------13b15---14b16--16b18-----------------------------------------------|
D|------------------------------------------------------------------------------------|
A|------------------------------------------------------------------------------------|
E|------------------------------------------------------------------------------------|

e|-----------------------------17-19-20-------|
B|-21b23--21p20p19/18-18-19-21----------17----|
G|--------------------------------------------|
D|--------------------------------------------|
A|--------------------------------------------|
E|--------------------------------------------|

Final tapping part missing apologies

  Outro
  Guitar 1
e|---------------------------------------------------------------|
B|---------------------------------------------------------------|
G|---------------------------------------------------------------|
D|---------------------------------6---6-6-----------------------|
A|-------------------------4---4-5-7-5-7-7-5--9-9-8-8--7-5-------|
E|-/7-0-0-0-/7-0-0-6-6-7-7---7----------------7-7-6-6--5-3-------|

   Guitar 2
e|---------------------------------------------------------------|
B|-11----12-----14----14-15-14-15-14-15--------------------------|
G|-13b15-14b16--16b18--------------------------------------------|
D|---------------------------------------------------------------|
A|---------------------------------------------------------------|
E|---------------------------------------------------------------|

e|---------------------------------------------------------------|
B|-11----12-----14----14-15-14-15-17-15--------------------------|
G|-13b15-14b16--16b18--------------------------------------------|
D|---------------------------------------------------------------|
A|---------------------------------------------------------------|
E|---------------------------------------------------------------|

 final bends to finish
e|----------------------------------------------------------|
B|-11-------12--------14------------------------------------|
G|-13b15----14b16-----16b18---------------------------------|
D|----------------------------------------------------------|
A|----------------------------------------------------------|
E|----------------------------------------------------------|
            
Submit corrections


        Barbarian  lessons Hard to play? Try these video lessons and learn fast Barbarian  lessons
        
↑ Back to top | Tablatures and chords for acoustic guitar and electric guitar, ukulele, drums are parodies/interpretations of the original songs. You may use it for private study, scholarship, research or language learning purposes only