» » »

Dark Funeral - My Latex Queen Tabs

Artists:  A B C D E F G H I J K L M N O P Q R S T U V W X Y Z # 

My Latex Queen Tabs

(ver. 1) Click to play this song!
Dark Funeral
 Rating:
4.3/5 (12 votes)

 My Latex Queen lessons Tabs too difficult? Try these video lessons and learn fast
 
                [Intro riff lead Lord Ahriman]
D#|----------------------------------------------------------|
A#|----------------------------------------------------------|
F#|------- -5---4--------------------------------------------|
C#|------5----5---6-------5------5----6-3-5------------------|
G#|--3-6--6---------6---5----3-6---6--------6-5-----2--------|
D#|-------------------3-------------------------3-5----------|

[Verse riff]
D#|-----------------------------------------|
A#|-----------------------------------------|
F#|-----------------------------------------|
C#|55555555333666666663333333355555555------|
G#|33333333111444444441111111133333333666666|
D#|-----------------------------------444444|

[Chorus riff]
D#|-------------------------------------------------------------|
A#|-------------------------------------------------------------|
F#|-------------------------------------------------------------|
C#|--5---3---666--5---3-5---------5---3---666---5---3-1-000-----|
G#|3---6---5----3---6-----666---3---6---5-----3---3-------------|
D#|-------------------------------------------------------------|

[Second Verse riff]
D#|----------------------------------------------------------------------------------|
A#|----------------------------------------------------------------------------------|
F#|55555555444444888888888555555558888884444445555555544444444--------44444444-------|
C#|55555555444444888888888555555558888884444445555555544444444--------44444444-------|
G#|333333332222226666666663333333366666622222233333333222222225555555522222222-------|
D#|-----------------------------------------------------------33333333---------------|

   Am not sure 100% about This dissonance chord but something like This
D#|-------------------------------------------------------------------|
A#|-------------------------------------------------------------------|
F#|5------4------8----5----8----4----5------4-------------------------|
C#|6------5------9----6----9----5----6------5--------555555555--------|--
G#|8------7------11---8----11---7----8------7-----666---------666555--|
D#|-------------------------------------------------------------------|

[Tremolo picking]
D#|-----------------------------------------|
A#|-----------------------------------------|
F#|-----5-8-7-5-----X3----------------------|
C#|----5--------5---------555555------------|
G#|333------------------6-------6-5---------|
D#|-----------------------------------------|

[After second chorus]
D#|-----------------------------------------------|
A#|-----------------------------------------------|
F#|12-12-12-10101013-13-13-12-12-12-1010108-8-8---|
C#|10-10-10-8-8-8-11-11-11-10-10-10-8-8-8-6-6-6---|
G#|-----------------------------------------------|
D#|-----------------------------------------------|

D#|------------------------|
A#|------------------------|
F#|----12------10--8---7---|
C#|10------10--------------|
G#|------------------------|
D#|------------------------|

[Final riff]
D#|--------------|
A#|--------------|
F#|5~~~let ring--|
C#|5~~~~~~~~~~---|
G#|3~~~~~~~~~----|
D#|--------------|

D#|------------------------------------------|
A#|---------------13---16-13-----------------|
F#|---------12-11---12-------12-11-12--------|
C#|10---13----------------------------13-----|
G#|------------------------------------------|
D#|------------------------------------------|

            
Submit corrections


        My Latex Queen lessons Hard to play? Try these video lessons and learn fast My Latex Queen lessons
        
↑ Back to top | Tablatures and chords for acoustic guitar and electric guitar, ukulele, drums are parodies/interpretations of the original songs. You may use it for private study, scholarship, research or language learning purposes only