» » »

Darius Rucker - It Wont Be Like This For Long Tabs

Artists:  A B C D E F G H I J K L M N O P Q R S T U V W X Y Z # 

It Wont Be Like This For Long Tabs

(ver. 1) Click to play this song!
Darius Rucker
 Rating:
4/5 (4 votes)

 It Wont Be Like This For Long  lessons Tabs too difficult? Try these video lessons and learn fast
 
                e--------------------------------------------------------|
B--------------------------------------------------------|
G--9-8-6-----------------------9-8-6---------------------|
D--------9-6--6h7p6-------------------9-6--6h7p6---------|
A-------------------9-7s11-----------------------9-7-7---|
E--------------------------------------------------------|

This can be played for the second half of the intro.

e--12-11-9---------------------------------|
B----------12-9--9h10p9--------------------|
G-----------------------11-9-9-------------|
D------------------------------------------|
A------------------------------------------|
E------------------------------------------|            
Submit corrections


        It Wont Be Like This For Long  lessons Hard to play? Try these video lessons and learn fast It Wont Be Like This For Long  lessons
        
↑ Back to top | Tablatures and chords for acoustic guitar and electric guitar, ukulele, drums are parodies/interpretations of the original songs. You may use it for private study, scholarship, research or language learning purposes only