» » »

Darius Rucker - It Wont Be Like This Tabs

Artists:  A B C D E F G H I J K L M N O P Q R S T U V W X Y Z # 

It Wont Be Like This Tabs

(ver. 1) Click to play this song!
Darius Rucker
 Rating:
4/5 (4 votes)

 It Wont Be Like This lessons Tabs too difficult? Try these video lessons and learn fast
 
                This is my first tab, so be easy, 
I'm going to post a recording of it soon, 
it sounds pretty good to me.  
I think there may be some bass notes missing, but not too sure, hope this helps.  Doing this from memory, 
I'll change anything that needs to be corrected, but this is how I play it.




E--------------------------------------------
B----4/5--4----------------------------------
G-----------4/6--4-----------------4---------
D-------------------6--6b7r6b7--4-----4/6----
A--------------------------------------------
E--------------------------------------------


E--------------------------------------x-----
B----4/5--4----------------------------x-----
G-----------4/6--4---------------------1-----
D-------------------6--6b7r6b7--4---2--2-----
A--------------------------------------2-----
E--------------------------------------0-----

This is played in the intro, the musical break, and at the end.  
When playing at the end play the entire full 
E-Chord nice and slow but fluid, and let it ring out, it sounds great
            
Submit corrections


        It Wont Be Like This lessons Hard to play? Try these video lessons and learn fast It Wont Be Like This lessons
        
↑ Back to top | Tablatures and chords for acoustic guitar and electric guitar, ukulele, drums are parodies/interpretations of the original songs. You may use it for private study, scholarship, research or language learning purposes only