» » »

Darius Rucker - If I Told You Tabs

Artists:  A B C D E F G H I J K L M N O P Q R S T U V W X Y Z # 

If I Told You Tabs

(ver. 1) Click to play this song!
Darius Rucker
 Rating:
4.4/5 (11 votes)

 If I Told You  lessons Tabs too difficult? Try these video lessons and learn fast
 
                [Intro]
   G                 Bm                Em                C
e|-----------------|-----------------|-----------------|-----------------|
B|-----3---3---3---|-----3---3---3---|-----3---3---3---|-----3---3-------|
G|---4---4---4---4-|---4---4---4---4-|---4---4---4---4-|---4---4---4-2-4-|
D|-5---------------|-4---------------|-2---------------|-----------------|
A|-----------------|-----------------|-----------------|-3---------------|
E|-----------------|-----------------|-----------------|-----------------|

[Verse]
   G                 Bm                Em                C
e|-----------------|-----------------|-----------------|-----------------|
B|-----3---3---3---|-----3---3---3---|-----3---3---3---|-----3---3---3---|
G|---4---4---4---4-|---4---4---4---4-|---4---4---4---4-|---4---4---4---2-|
D|-5---------------|-4---------------|-2---------------|-----------------|
A|-----------------|-----------------|-----------------|-3---------------|
E|-----------------|-----------------|-----------------|-----------------|

   G                 Bm                Em                C
e|-----------------|-----------------|-----------------|-----------------|
B|-----3---3---3---|-----3---3---3---|-----3---3---3---|-----3---3---3---|
G|---4---4---4---4-|---4---4---4---4-|---4---4---4---4-|---4---4---4---2-|
D|-5---------------|-4---------------|-2---------------|-----------------|
A|-----------------|-----------------|-----------------|-3---------------|
E|-----------------|-----------------|-----------------|-----------------|

[Pre-Chorus]
   G                 Bm                Em                C
e|-----------------|-----------------|-----------------|-----------------|
B|-----3---3---3---|-----3---3---3---|-----3---3---3---|-----3---3---3---|
G|---4---4---4---4-|---4---4---4---4-|---4---4---4---4-|---4---4---4---2-|
D|-5---------------|-4---------------|-2---------------|-----------------|
A|-----------------|-----------------|-----------------|-3---------------|
E|-----------------|-----------------|-----------------|-----------------|

[Chorus]

   G                 Dsus4             Em                Cadd9
e|-----3---3---5-3-|-----3-------5-3-|-----3---3---5-3-|-----3---3---5-3-|
B|---3---3---3-----|---3---3---3-----|---3---3---3-----|---3---3---3-----|
G|-0---------------|-----------------|-----------------|-----------------|
D|-----------------|-4-------4-------|-2---------------|-----------------|
A|-----------------|-----------------|-----------------|-3---------------|
E|-----------------|-----------------|-----------------|-----------------|

   G                 Bm                Em                Cadd9
e|-----3---3---5-3-|-2---2---2---5---|-----3---3---5-3-|-----3---3---5-3-|
B|---3---3---3-----|---3---3---3-----|---3---3---3-----|---3---3---3-----|
G|-----------------|-----------------|-----------------|-----------------|
D|-----------------|-4---------------|-2---------------|-----------------|
A|-----------------|-----------------|-----------------|-3---------------|
E|-3---------------|-----------------|-----------------|-----------------|

[Interlude]
   G                 Bm                Em                C
e|-----------------|-----------------|-----------------|-----------------|
B|-----3---3---3---|-----3---3---3---|-----3---3---3---|-----3---3---3---|
G|---4---4---4---4-|---4---4---4---4-|---4---4---4---4-|---4---4---4---2-|
D|-5---------------|-4---------------|-2---------------|-----------------|
A|-----------------|-----------------|-----------------|-3---------------|
E|-----------------|-----------------|-----------------|-----------------|

[Verse]
   G                 Bm                Em                C
e|-----------------|-----------------|-----------------|-----------------|
B|-----3---3---3---|-----3---3---3---|-----3---3---3---|-----3---3---3---|
G|---4---4---4---4-|---4---4---4---4-|---4---4---4---4-|---4---4---4---2-|
D|-5---------------|-4---------------|-2---------------|-----------------|
A|-----------------|-----------------|-----------------|-3---------------|
E|-----------------|-----------------|-----------------|-----------------|

[Pre-Chorus]
   G                 Bm                Em                C
e|-----------------|-----------------|-----------------|-----------------|
B|-----3---3---3---|-----3---3---3---|-----3---3---3---|-----3---3---3---|
G|---4---4---4---4-|---4---4---4---4-|---4---4---4---4-|---4---4---4---2-|
D|-5---------------|-4---------------|-2---------------|-----------------|
A|-----------------|-----------------|-----------------|-3---------------|
E|-----------------|-----------------|-----------------|-----------------|

[Chorus]

   G                 Dsus4             Em                Cadd9
e|-----3---3---5-3-|-----3---3---5-3-|-----3---3---5-3-|-----3---3---5-3-|
B|---3---3---3-----|---3---3---3-----|---3---3---3-----|---3---3---3-----|
G|-0---------------|-----------------|-----------------|-----------------|
D|-----------------|-4---------------|-2---------------|-----------------|
A|-----------------|-----------------|-----------------|-3---------------|
E|-----------------|-----------------|-----------------|-----------------|

   G                 Bm                Em                Cadd9
e|-----3---3---5-3-|-2---2---2---5-2-|-3---3---3---5-3-|-----3---3---5-3-|
B|---3---3---3-----|---3---3---3-----|---3---3---3-----|---3---3---3-----|
G|-0---------------|-----------------|-----------------|-----------------|
D|-----------------|-4---------------|-2---------------|-----------------|
A|-----------------|-----------------|-----------------|-3---------------|
E|-----------------|-----------------|-----------------|-----------------|

   G                 Bm                Em                Cadd9
e|-----3---3---5-3-|-----2-------5---|-3---3---3---5-3-|-----3---3---5-3-|
B|---3---3---3-----|---3-----3-3---3-|---3---3---3-----|---3---3---3-----|
G|-0---------------|-----------------|-----------------|-----------------|
D|-----------------|-4---------------|-2---------------|-----------------|
A|-----------------|-----------------|-----------------|-3---------------|
E|-----------------|-----------------|-----------------|-----------------|

[Bridge] 
   G                 Dsus4             Em                Cadd9
e|-----------------|-----------------|-----------------|-----------------|
B|-3---3---3---3---|-3---3---3---3---|-3---3---3---3---|-3---------------|
G|-0---0---0---0---|-0---0---0---0---|-0---0---0---0---|-0---------------|
D|-5---------------|-4---------------|-2---------------|-----------------|
A|-----------------|-----------------|-----------------|-3---------------|
E|-----------------|-----------------|-----------------|-----------------|

[Chorus]
   G                 Dsus4             Em                Cadd9
e|-3-3-3-3-3-3-3-3-|-3-3-3-3-3-3-3-3-|-3-3-3-3-3-3-3-3-|-3-3-3-3-3-3-3-3-|
B|-3-3-3-3-3-3-3-3-|-3-3-3-3-3-3-3-3-|-3-3-3-3-3-3-3-3-|-3-3-3-3-3-3-3-3-|
G|-0-0-0-0-0-0-0-0-|-2-2-2-2-2-2-2-2-|-0-0-0-0-0-0-0-0-|-0-0-0-0-0-0-0-0-|
D|-0---------------|-0---------------|-2---------------|-2---------------|
A|-2---------------|-0---------------|-2---------------|-3---------------|
E|-3---------------|-2---------------|-0---------------|-----------------|

   G                 Bm                Em                C
e|-----------------|-----------------|-----------------|-----------------|
B|-----3---3---3---|-----3---3---3---|-----3---3---3---|-----3---3---3---|
G|---4---4---4---4-|---4---4---4---4-|---4---4---4---4-|---4---4---4---2-|
D|-5---------------|-4---------------|-2---------------|-----------------|
A|-----------------|-----------------|-----------------|-3---------------|
E|-----------------|-----------------|-----------------|-----------------|

   G                 Bm                Em                C
e|-----------------|-----------------|-----------------|-----------------|
B|-----3---3---3---|-----3---3---3---|-----3---3---3---|-----3---3---3---|
G|---4---4---4---4-|---4---4---4---4-|---4---4---4---4-|---4---4---4---2-|
D|-5---------------|-4---------------|-2---------------|-----------------|
A|-----------------|-----------------|-----------------|-3---------------|
E|-----------------|-----------------|-----------------|-----------------|

[Outro]
   G
e|---------3-----------3-------3---|---------3-----------3-------3---|
B|---------3-----------3-------3---|---------3-----------3-------3---|
G|-0-0-0-0-0-0-0-0-0-0-0-0-0-0-0-0-|-0-0-0-0-0-0-0-0-0-0-0-0-0-0-0-0-|
D|---------------------------------|---------------------------------|
A|---------------------------------|---------------------------------|
E|---------------------------------|---------------------------------|

e|---------3-----------3-------3---|-3--|
B|---------3-----------3-------3---|-3--|
G|-0-0-0-0-0-0-0-0-0-0-0-0-0-0-0-0-|-0--|
D|---------------------------------|----|
A|---------------------------------|----|
E|---------------------------------|----|


[Intro]
G Bm Em C

[Verse]

 G                                                    Bm
What if I told you about my little nothing town, the two room house where I came from
    Em                           C
The man that I got my name from, I don't even know where he is now
 G
What if I told you sometimes I lose my faith
   Bm
I wonder why someone like you would even talk to me
 Em                                             C
What if I told you there's no fixing me, 'cause everybody's already tried

[Pre-chorus]
       G               Bm           Em                        C
Would you stay? Would you leave? I could wait, it'll all come out eventually

[Chorus]

      G                        Dsus4
If I told you all the stupid things I've done
               Em                    Cadd9 
I've blamed on being young but I was old enough to know I know
      G                           Bm                              Em
If I told you the mess that I can be when there's no one there to see
                           Cadd9                          G   D   Em    C
Could you look the other way?  Could you love me anyway?

[Verse]
 G                                                    Bm
What if I told you I don't plan on staying here, my dreams are a million miles away
    Em                                                      C
And I know your family's gonna want you to stay. You know what I don't blame 'em

[Pre-chorus]
    G                     D                      Em                C
So I'll say what I don't want to, and I'll just pray you want what I do, mmmm

[Chorus]
      G                        Dsus4
If I told you all the stupid things I've done
               Em                   Cadd9 
I've blamed on being young but I was old enough to know I know
      G                           Bm                              Em
If I told you the mess that I can be when there's no one there to see
                             Cadd9                         
Could you look the other way?   Could you love me anyway? 
G   Bm                         Em   Cadd9
 Aw,   could you love me anyway?

[Bridge]
G                                Dsus4
 So before we go any further here let a week turn into another year
         Em                                               Cadd9
There's some things you probably don't wanna hear but you have to

[Chorus]
      G                        Dsus4                        Em
If I told you sometimes I get jealous, sometimes I'm half crazy
                 Cadd9
Would you say the hell with me, the hell with me
      G                           Bm                               Em
If I told you I barely know what love is? But girl if that's what this is
                 C
I don't want to let it slip away, no, no, no

[Outro]
G                      Bm          Em                         C
  Could you love me anyway? Please?  Could you love me anyway?
G                      Bm      Em                         C     G
  Could you love me anyway? Ooo   Could you love me anyway?
            
Submit corrections


        If I Told You  lessons Hard to play? Try these video lessons and learn fast If I Told You  lessons
        
↑ Back to top | Tablatures and chords for acoustic guitar and electric guitar, ukulele, drums are parodies/interpretations of the original songs. You may use it for private study, scholarship, research or language learning purposes only