Home » D » Dan Seals »

Dan Seals - Everything That Glitters Is Not Gold Tabs

Artists:  A B C D E F G H I J K L M N O P Q R S T U V W X Y Z # 

Everything That Glitters Is Not Gold Tabs

(ver. 1) Click to play this song!
Dan Seals
"Capo 2

Intro:

   Dsus2         Dsus2/F#      Bm         A  G
e-|-------0-------------0-------------2-------------3-----|
B-|-----3---3---------3---3-----3-------3--2--0-----------|
G-|---2-------2-----2-------2-----4-----4--2--0-0---------|
D-|-0-----------0-------------0-----4-------------0-------|
A-|-----------------------------2-------2--0--------------|
E-|---------------2---------------------------3-----------|



VERSE 1 (picking similar to outro without the G-riff):

         Dsus2        Dsus2/F#     G           Dsus2
Saw your picture on a poster, in a cafe out in Pheonix
             Bm                   Asus2     G
Guess you're still the sweetheart of the rodeo
       Dsus2         Dsus2/F#  G                 Dsus2
As for me and little Casey,    we still make the circuit
     Bm                Asus2        G
In a one-horse trailer and a mobile home
    Em                               Asus2
And she still asks about you all the time
      Em                             Asus2  A (stop)
And I guess we never even cross your mind


(Strum rest of song until outro, ad lib sus2 and sus4
on the D and A chords. When there are two consecutive
bars of D as below, the bass player is emphasizing an
F# bass for the second bar.)


CHORUS:
             D              D/F#
But, oh, sometimes I think about you
        G               D
And the way you used to ride out
        D                    D/F#
In your rhinestones and your sequins
         A           Asus4 A
With the sunlight on your  hair
             D                 D/F#
And, oh, the crowd will always love you
           G               D
But as for me I've come to know
     D                   A        D
Everything that glitters.. is not gold



          D                 D/F#
Well, old Red, he's getting older
         G           D
And last Saturday he stumbled
        Bm                Asus2           G
But you know I just can't bear to let him go
       D                  D/F#
Little Casey, she's still growing
          G              D
And she's started asking questions
            Bm               Asus2            G
And there's certain things a man just doesn't know
    Em                               Asus2
Her birthday came and you never even called
      Em                                Asus2  A  (stop)
And I guess we never cross your mind at all


CHORUS


BRIDGE:

     Bm              A               G
Everybody said you'd make it big someday
      Bm                 A            G
And I guess that we were only in your way
        D                     F#m            G
But someday, I'm sure, you're gonna know the cost
          Em                                    Asus2  A  (stop)
Cause for everything you win, there's something lost


CHORUS (slowly):


    D                  A           D   Dx D   G   Gx G
Everything that glitters.... is not gold,      ooooooooh
    D                  A(stop)
Everything that glitters........
 (a cappella, chord would be D on "gold")
......... is not gold


OUTRO (while whistling melody):

   Dsus2         Dsus2/F#      G6            Dsus2
e-|-------0-------------0-------------0-------------0-------|
B-|-----3---3---------3---3---------3---3---------3---3-----|
G-|---2-------2-----2-------2-----0-------0-----2-------2---|
D-|-0-----------0-------------0-------------0-0-------------|
A-|-------------------------------------------------------4-|
E-|---------------2-------------3---------------------------|

   Bm            Asus2       G-riff
e-|-------2-------------0---------------------0-------------|
B-|-----3---3---------0---0---0-0-0-2-3-0-0-----3-----------|
G-|---4-------4-----2-------2-0-2-0-2-4-0-0-----------------|
D-|-------------4---------------------------0---------------|
A-|-2-------------0-----------------------------------------|
E-|---------------------------3-----------------------------|

repeat and fade... 
"            
Submit corrections

↑ Back to top | Tablatures and chords for acoustic guitar and electric guitar, ukulele, drums are parodies/interpretations of the original songs. You may use it for private study, scholarship, research or language learning purposes only