Home » D » Daniel Wirtz »

Daniel Wirtz - Den Ersten Stein Tabs

Artists:  A B C D E F G H I J K L M N O P Q R S T U V W X Y Z # 

Den Ersten Stein Tabs

(ver. 1) Click to play this song!
Daniel Wirtz
[Intro]

Acoustic:

  PM-------------------------------|   PM-------------------------------|
e|------------------------------------|--------------------------------------|
B|------------------------------------|--------------------------------------|
G|------------------------------------|--------------------------------------|
D|------------------------------------|--------------------------------------|
A|--5-5-5-4-4-4-5-5-5-4-4-4-5-5-7-7---|--9-9-9-7-7-7-9-9-9-7-7-7-9-9-7-7-----|
D|--0-0-0-0-0-0-0-0-0-0-0-0-0-0-0-0---|--0-0-0-0-0-0-0-0-0-0-0-0-0-0-0-0-----|



[Verse]

Acoustic 4x

  PM-------------------------------|   PM-------------------------------|
e|------------------------------------|--------------------------------------|
B|------------------------------------|--------------------------------------|
G|------------------------------------|--------------------------------------|
D|------------------------------------|--------------------------------------|
A|--5-5-5-4-4-4-5-5-5-4-4-4-5-5-7-7---|--9-9-9-7-7-7-9-9-9-7-7-7-9-9-7-7-----|
D|--0-0-0-0-0-0-0-0-0-0-0-0-0-0-0-0---|--0-0-0-0-0-0-0-0-0-0-0-0-0-0-0-0-----|


E-Guitar 1 4th time

e|------------------------------------|--------------------------------------|
B|------------------------------------|--------------------------------------|
G|------------------------------------|--------------------------------------|
D|------------------------------------|--------------------------------------|
A|------------------------------------|----------------------5-5-5-5-5-5-----|
D|------------------------------------|----------------------0-0-0-0-0-0-----|



[Chorus]

Acoustic & E-Guitar 1 2x

e|------------------------------------|--------------------------------------|
B|------------------------------------|--------------------------------------|
G|------------------------------------|--------------------------------------|
D|--5---------------------------------|--2-----------------------------------|
A|--5---------------------------------|--2-----------------------------------|
D|--5---------------------------------|--2-----------------------4-5-4-0-----|

e|------------------------------------|--------------------------------------|
B|------------------------------------|--------------------------------------|
G|--2---------------------------------|--2-----------------------------------|
D|--2-----------0---------------------|--2-----------0-----------------------|
A|--0-----------0---------------------|--0-----------0-----------------------|
D|--------------0---------------------|--------------0-----------------------|



[Interlude]

Acoustic

e|--3-----3---2-2-----2-----2-2-------|----------------------------0-0-------|
B|--3-----3---3-3-----3-----3-3---3---|--3-----3---3-3-----3---3-3-3-3-------|
G|------------------------------------|--------------------------------------|
D|------------------------------------|--------------------------------------|
A|------------------------------------|--------------------------------------|
D|------------------------------------|--------------------------------------|


E-Guitar 1                                                        
                                                                       PM
e|------------------------------------|--------------------------------------|
B|------------------------------------|--------------------------------------|
G|------------------------------------|--------------------------------------|
D|------------------------------------|--------------------------------------|
A|------------------------------------|--------------------------------------|
D|------------------------------------|--------------------------------0-----|


Acoustic

e|--3-----3---2-2-----2-----2-2-------|----------------------------0-0-------|
B|--3-----3---3-3-----3-----3-3---3---|--3-----3---3-3-----3---3-3-3-3-------|
G|------------------------------------|--------------------------------------|
D|------------------------------------|--------------------------------------|
A|------------------------------------|--------------------------------------|
D|------------------------------------|--------------------------------------|


E-Guitar 1                                                        

e|------------------------------------|--------------------------------------|
B|------------------------------------|--------------------------------------|
G|------------------------------------|--------------------------------------|
D|--0---------------------------------|--------------------------------------|
A|--0---------------------------------|--------------------------------------|
D|--0---------------------------------|--------------------------------------|



[Verse]

Acoustic

e|--3-----3---2-2-----2-----2-2-------|----------------------------0-0-------|
B|--3-----3---3-3-----3-----3-3---3---|--3-----3---3-3-----3---3-3-3-3-------|
G|------------------------------------|--------------------------------------|
D|------------------------------------|--------------------------------------|
A|------------------------------------|--------------------------------------|
D|------------------------------------|--------------------------------------|


E-Guitar 1

  PM-------------------------------|   PM-------------------------------|
e|------------------------------------|--------------------------------------|
B|------------------------------------|--------------------------------------|
G|------------------------------------|--------------------------------------|
D|------------------------------------|--------------------------------------|
A|--5-5-5-4-4-4-5-5-5-4-4-4-5-5-7-7---|--9-9-9-7-7-7-9-9-9-7-7-7-9-9-7-7-----|
D|------------------------------------|--------------------------------------|


Acoustic

e|--3-----3---2-2-----2-----2-2-------|----------------------------0-0-------|
B|--3-----3---3-3-----3-----3-3---3---|--3-----3---3-3-----3---3-3-3-3-------|
G|------------------------------------|--------------------------------------|
D|------------------------------------|--------------------------------------|
A|------------------------------------|--------------------------------------|
D|------------------------------------|--------------------------------------|


E-Guitar 1

  PM-------------------------------|   PM-------------------------------|
e|------------------------------------|--------------------------------------|
B|------------------------------------|--------------------------------------|
G|------------------------------------|--------------------------------------|
D|------------------------------------|--------------------------------------|
A|--5-5-5-4-4-4-5-5-5-4-4-4-5-5-7-7---|--9-9-9-7-7-7-9-9-9-7-7-7-9-9-7-7-----|
D|--0-0-0-0-0-0-0-0-0-0-0-0-0-0-0-0---|--------------------------------------|


E-Guitar 2                                                        
                                                                       PM
e|------------------------------------|--------------------------------------|
B|------------------------------------|--------------------------------------|
G|------------------------------------|--------------------------------------|
D|------------------------------------|--------------------------------------|
A|------------------------------------|--------------------------------------|
D|------------------------------------|--------------------------------0-----|


Acoustic

e|--3-----3---2-2-----2-----2-2-------|----------------------------0-0-------|
B|--3-----3---3-3-----3-----3-3---3---|--3-----3---3-3-----3---3-3-3-3-------|
G|------------------------------------|--------------------------------------|
D|------------------------------------|--------------------------------------|
A|------------------------------------|--------------------------------------|
D|------------------------------------|--------------------------------------|


E-Guitar 1

  PM-------------------------------|   PM-------------------------------|
e|------------------------------------|--------------------------------------|
B|------------------------------------|--------------------------------------|
G|------------------------------------|--------------------------------------|
D|------------------------------------|--------------------------------------|
A|--5-5-5-4-4-4-5-5-5-4-4-4-5-5-7-7---|--9-9-9-7-7-7-9-9-9-7-7-7-9-9-7-7-----|
D|------------------------------------|--------------------------------------|


E-Guitar 2                                                        
                                                                       
e|------------------------------------|--------------------------------------|
B|------------------------------------|--------------------------------------|
G|------------------------------------|--------------------------------------|
D|--0---------------------------------|--------------------------------------|
A|--0---------------------------------|--------------------------------------|
D|--0---------------------------------|--------------------------------------|


Acoustic

e|--3-----3---2-2-----2-----2-2-------|----------------------------0-0-------|
B|--3-----3---3-3-----3-----3-3---3---|--3-----3---3-3-----3---3-3-3-3-------|
G|------------------------------------|--------------------------------------|
D|------------------------------------|--------------------------------------|
A|------------------------------------|--------------------------------------|
D|------------------------------------|--------------------------------------|


E-Guitar 1

  PM-------------------------------|   PM-------------------------------|
e|------------------------------------|--------------------------------------|
B|------------------------------------|--------------------------------------|
G|------------------------------------|--------------------------------------|
D|------------------------------------|--------------------------------------|
A|--5-5-5-4-4-4-5-5-5-4-4-4-5-5-7-7---|--9-9-9-7-7-7-9-9-9-7-7-7-9-9-7-7-----|
D|------------------------------------|--------------------------------------|


E-Guitar 2                                    Play more and more open            
                                       PM -------------------------------|                

e|------------------------------------|--------------------------------------|
B|------------------------------------|--------------------------------------|
G|------------------------------------|--------------------------------------|
D|------------------------------------|--------------------------------------|
A|------------------------------------|--5-5-5-5-5-5-5-5-5-5-5-5-5-5-5-5-----|
D|------------------------------------|--0-0-0-0-0-0-0-0-0-0-0-0-0-0-0-0-----|
-


[Chorus]

Acoustic & E-Guitar 1 2x

e|------------------------------------|--------------------------------------|
B|------------------------------------|--------------------------------------|
G|------------------------------------|--------------------------------------|
D|--5---------------------------------|--2-----------------------------------|
A|--5---------------------------------|--2-----------------------------------|
D|--5---------------------------------|--2-----------------------4-5-4-0-----|

e|------------------------------------|--------------------------------------|
B|------------------------------------|--------------------------------------|
G|--2---------------------------------|--2-----------------------------------|
D|--2-----------0---------------------|--2-----------0-----------------------|
A|--0-----------0---------------------|--0-----------0-----------------------|
D|--------------0---------------------|--------------0-----------------------|



[Bridge]

E-Guitar 1

      PM-|  PM-|  PM------ |               PM-|  PM-|  PM-------|
e|------------------------------------|--------------------------------------|
B|------------------------------------|--------------------------------------|
G|------------------------------------|--------------------------------------|
D|--4-----5-----7-----------4-5-4-0---|--4-----5-----4-----------4-5-4-0-----|
A|------------------------------------|--------------------------------------|
D|----5-5---5-5---5-5-5-5-5-----------|----2-2---2-2---2-2-2-2-2-------------|


e|------------------------------------|--------------------------------------|
B|------------------------------------|--------------------------------------|
G|--2---------------------------------|--2-----------------------------------|
D|--2-----------0---------------------|--2-----------0-----------------------|
A|--0-----------0---------------------|--0-----------0-----------------------|
D|--------------0---------------------|--------------0-----------------------|


Acoustic & E-Guitar 2


e|------------------------------------|--------------------------------------|
B|------------------------------------|--------------------------------------|
G|--2---------------------------------|--2-----------------------------------|
D|--2-----------0---------------------|--2-----------0-----------------------|
A|--0-----------0---------------------|--0-----------0-----------------------|
D|--------------0---------------------|--------------0-----------------------|


E-Guitar 1

      PM-|  PM-|  PM------ |               PM-|  PM-|  PM-------|
e|------------------------------------|--------------------------------------|
B|------------------------------------|--------------------------------------|
G|------------------------------------|--------------------------------------|
D|--4-----5-----7-----------4-5-4-0---|--4-----5-----4-----------4-5-4-0-----|
A|------------------------------------|--------------------------------------|
D|----5-5---5-5---5-5-5-5-5-----------|----2-2---2-2---2-2-2-2-2-------------|


E-Guitar 2

      PM-|  PM-|  PM------ |               PM-|  PM-|  PM-------|
e|------------------------------------|--------------------------------------|
B|------------------------------------|--------------------------------------|
G|------------------------------------|--------------------------------------|
D|--4-----5-----7-----------4-5-4-0---|--4-----5-----4-----------4-5-4-0-----|
A|------------------------------------|--------------------------------------|
D|----5-5---5-5---5-5-5-5-5-----------|----2-2---2-2---2-2-2-2-2-------------|



E-Guitar 1

e|------------------------------------|--------------------------------------|
B|------------------------------------|--------------------------------------|
G|--2---------------------------------|--2-----------------------------------|
D|--2-----------0---------------------|--2-----------0-----------------------|
A|--0-----------0---------------------|--0-----------0-----------------------|
D|--------------0---------------------|--------------0-----------------------|


E-Guitar 2

e|------------------------------------|--------------------------------------|
B|------------------------------------|--------------------------------------|
G|--2---------------------------------|--2-----------------------------------|
D|--2-----------0---------------------|--2-----------0-----------------------|
A|--0-----------0---------------------|--0-----------0-----------------------|
D|--------------0---------------------|--------------0-----------------------|


Acoustic

e|------------------------------------|--------------------0-----0-----------|
B|------------------------------------|--------------------3-----3-----------|
G|--2---------------------------------|--2-----------------2-----2-----------|
D|--2-----------0---------------------|--2-----------0-----------------------|
A|--0-----------0---------------------|--0-----------0-----------------------|
D|--------------0---------------------|--------------0-----------------------|



[Outro]

Acoustic

e|--2-----3-----5-----------2h3p2-----|--2-----3-----5-----------2h3p2-------|
B|--------------------3-----------3---|--------------------3-----------3-----|
G|----0-0---0-0---0-0---0-0-----------|--------------------------------------|
D|------------------------------------|----2-2---2-2---2-2---2-2-------------|
A|------------------------------------|--------------------------------------|
D|------------------------------------|--------------------------------------|


E-Guitar 1

e|------------------------------------|--------------------------------------|
B|------------------------------------|--------------------------------------|
G|--------------------------7---------|--------------------------------------|
D|------------------------------------|--------------------------------------|
A|--5---------------------------------|--2-----------------------------------|
D|------------------------------------|--------------------------------------|


Acoustic

e|--0-----0h2p0-3-----3-----3---------|--0-----0h2p0-------------------------|
B|--3-----3-----2-----2-----2---------|--3-----3-----------------------------|
G|--0-----2-----0-----0-----0---------|--2-----2-----------------------------|
D|------------------------------------|--------------4-----------------------|
A|------------------------------------|--------------0-----------------------|
D|------------------------------------|--------------0-----------------------|


E-Guitar 1

e|------------------------------------|--------------------------------------|
B|------------------------------------|--------------------------------------|
G|--2---------------------------------|--------------------------------------|
D|--2---------------------------------|--------------------------------------|
A|--0---------------------------------|--------------------------------------|
D|------------------------------------|--------------------------------------|

            
Submit corrections

↑ Back to top | Tablatures and chords for acoustic guitar and electric guitar, ukulele, drums are parodies/interpretations of the original songs. You may use it for private study, scholarship, research or language learning purposes only