» » »

Daniel Ingram - Awesome As I Wanna Be Tabs

Artists:  A B C D E F G H I J K L M N O P Q R S T U V W X Y Z # 

Awesome As I Wanna Be Tabs

(ver. 1) Click to play this song!
Daniel Ingram
 Rating:
3.3/5 (25 votes)

 Awesome As I Wanna Be  lessons Tabs too difficult? Try these video lessons and learn fast
 
                Tuning: Standard

(Drum Lead-In)                  (Awesome as I wanna be)
e|----------------------------------|
B|---7-h8-7---7-h8-10---7-h8-7---8--|
G|-----7----7---7-----7---7----7----|
D|----------------------------------|
A|----------------------------------|     x2
E|----------------------------------|


Verse 1:
   (1+2+3+4+1+2+3+4+1+2+3+4+1+2+3+4+)
e|-------------------------------------------------------------------|
B|-------------------------------------------------------------------|
G|--77------------------------------77-------------------------------|
D|--77------99------55------3-3-2-2-77------99------55------3-3-2-2--|
A|--55------99------55------3-3-2-2-55------99------55------3-3-2-2--|
E|----------77------33------1-1-0-0---------77------33------1-1-0-0--|


Chorus 1:

e|-------------------------------------|
B|-------------------------------------|
G|--7-7-7-7-----------------10-10-9-9--|
D|--7-7-7-7-7-7-7-7-9-9-9-9-10-10-9-9--|
A|--5-5-5-5-7-7-7-7-9-9-9-9-8--8--7-7--|     x2
E|----------5-5-5-5-7-7-7-7------------|


Solo:

e|--14/17-14/17-14/17-14/17-14/17-14/17-15-14--------------------------------------------------|
B|--------------------------------------------17-15----------14-15-14--------------------------|
G|--------------------------------------------------16-14-16----------16-14-16-14-16\11-12-11--|
D|---------------------------------------------------------------------------------------------|
A|---------------------------------------------------------------------------------------------|
E|---------------------------------------------------------------------------------------------|

e|----------------------10---10p9-10h12---14---14-12-10---------13\10-13\10-13\10-12-10--|
B|--10-10-----------------------------------------------12-10----------------------------|
G|--------12p11-9h11-12------------------------------------------------------------------|
D|---------------------------------------------------------------------------------------|
A|---------------------------------------------------------------------------------------|
E|---------------------------------------------------------------------------------------|


Verse 2:
   (1+2+3+4+1+2+3+4+1+2+3+4+1+2+3+4+)
e|-------------------------------------------------------------------|
B|-------------------------------------------------------------------|
G|--77-777--------------------------77-777---------------------------|
D|--77-777--99-999--55-555--3-3-2-2-77-777--99-999--55-555--3-3-2-2--|
A|--55-555--99-999--55-555--3-3-2-2-55-555--99-999--55-555--3-3-2-2--|
E|----------77-777--33-333--1-1-0-0---------77-777--33-333--1-1-0-0--|


Chorus 2:
                                                                         (hold)
e|---------------------------------------------------------------------------|
B|---------------------------------------------------------------------------|
G|--7-7-7-7-----------------10-10-9-9-7-7-7-7-----------------10-10-9-9-7-7--|
D|--7-7-7-7-7-7-7-7-9-9-9-9-10-10-9-9-7-7-7-7-7-7-7-7-9-9-9-9-10-10-9-9-7-7--|
A|--5-5-5-5-7-7-7-7-9-9-9-9-8--8--7-7-5-5-5-5-7-7-7-7-9-9-9-9-8--8--7-7-5-5--|
E|----------5-5-5-5-7-7-7-7-------------------5-5-5-5-7-7-7-7----------------|


At the end of the song there is a drum bit to close it out.
I like playing one last chord there, making it fall, like so:
e|--------------------------|
B|---(hold)-----------------|
G|--7-7-----------------7\--|
D|--7-7-----------------7\--|
A|--5-5-----------------5\--|
E|--------------------------|            
Submit corrections


        Awesome As I Wanna Be  lessons Hard to play? Try these video lessons and learn fast Awesome As I Wanna Be  lessons
        
↑ Back to top | Tablatures and chords for acoustic guitar and electric guitar, ukulele, drums are parodies/interpretations of the original songs. You may use it for private study, scholarship, research or language learning purposes only