» » »

Daniel Bedingfield - If You're Not The One Tabs

Artists:  A B C D E F G H I J K L M N O P Q R S T U V W X Y Z # 

If You're Not The One Tabs

(ver. 1) Click to play this song!
Daniel Bedingfield
 Rating:
3.8/5 (6 votes)


 If You're Not The One lessons Tabs too difficult? Try these video lessons and learn fast
 
                -------------------------------------------------------------------------------
                             if you're not the one- Daniel Beding field
-------------------------------------------------------------------------------

Tuning:standard

            yeah          yeah      woohoo

e|-------2--|--------2-|--------2--|--------2-----------------------|
B|-----2----|------0---|------2----|------0-------------------------|
G|---4------|----1-----|----4------|----1---------------------------|
D|-4--------|--2-------|--4--------|--2-----------------------------|
A|----------|----------|-----------|--------------------------------|
E|----------|----------|-----------|--------------------------------|

If you're not the one then why does my soul feel glad ..........today

e|-------2-----------------------------------------------2--------------2-----------|
B|-----2-----------------------------------------------0-------------------0--------|
G|---4-----------------------------------------------1-----------------------1------|
D|-4-------------------------------------------==--2---------------------------2----|
A|----------------------------------------------------------------------------------|
E|----------------------------------------------------------------------------------|

If you're not the one then why does my hand fit yours this way?

e|-------2--------------------------------------------2---------------------|
B|-----2--------------------------------------------0-----------------------|
G|---4--------------------------------------------1-------------------------|
D|-4--------------------------------------------2---------------------------|
A|--------------------------------------------------------------------------|
E|--------------------------------------------------------------------------|

If you are not mine then why does your heart return.............. my call

e|-------2--------------------------2--------2---------2---2------------2---2----|
B|-----2--------------------------2--------2---------0-------0-------0--------0--|
G|---4--------------------------4--------4---------1-----------1---1-------------|
D|-4--------------------------4--------4---------2-------2-------2---------2-----|
A|-------------------------------------------------------------------------------|
E|-------------------------------------------------------------------------------|

If you are not mine would I have the strength to stand.......at all

e|-------2------------------------2---------2-------------2-------------2--------|
B|-----2------------------------2---------2-------------0-------------0-------0--|
G|---4------------------------4---------4-------------1-------------1-------1----|
D|-4------------------------4---------4-------------2-------------2-------2------|
A|-------------------------------------------------------------------------------|
E|-------------------------------------------------------------------------------|

      I never know what the future brings

e|-----------------------2---0---------------------------------------------------|
B|----------4--------------------------------------------------------------------|
G|------4----4--------4----------------------------------------------------------|
D|--------6-----6--4-------4-----------------------------------------------------|
A|----6----------2---------------------------------------------------------------|
E|-4-----------------------------------------------------------------------------|

But I know you are here with me now       We'll make it through    And I hope you are
one I share my life with

e|-----------------------------------------------------------2----------------2---------4---6---7|
B|------4------4--------------------3-----2------0------------2----------------------------------|
G|-----------4-----4------------------4-----4--------------4-----------------4-------------------|
D|---------6----------6-----------------4------4-----4---4-----------------4------------0---0---0|
A|--------6--------------2----------------------------2--------2--------2------------------------|
E|------4----------------------------------------------------------------------------------------|

chorus:

    I don't want to run away but I can't take it, I don't understand

e|-----2-2-x-2----------2-2-x-2-------4-4-x-4-------2-2-x-2--------------|
B|-----2-2-x-2----------2-2-x-2-------5-5-x-5-------2-2-x-2--------------|
G|-----4-4-x-4----4-----4-4-x-4-------6-6-x-6-----4-4-4-x-4--------------|
D|---4---------------4------------6-------------2---------------2--------|
A|-2-----------2---2----------2-4-------------4--------------------------|
E|-----------------------------------------------------------------------|

    If I'm not made for you then why does my heart tell me that I am?

e|-----2-2-x-2-------4-4-x-4--------2-2-x-2--------2-2-x-2-------------------|
B|-----2-2-x-2-------5-5-x-5--------2-2-x-2--------2-2-x-2-------------------|
G|-----4-4-x-4-------6-6-x-6------4-4-4-x-4------4-4-4-x-4-------------------|
D|---4-------------6------------2-----------2--2-----------2-----------------|
A|-2-----------2-4------------4----------------------------------------------|
E|---------------------------------------------------------------------------|

            Is there any way that I can stay in your arms?
e|------4-4-x-4---------2-x-2--------------4----------2----------------(2)-----------|
b|------4-4-x-4---------2-x-2------------5----------0---0----------(0)-----(0)-------|
g|------4-4-x-4---------3-x-3----------6----------1-------1----(1)-------------------|
-|-------------------4---------------6-------1-2-------------2------------------(2)--|..itutuloy...
a|---6-------------4---------------4-------------------------------------------------|
e|-4-----------4-2-------------------------------------------------------------------|
************************************

do this for
verse 2

e|--------2---------------(2)-------(2)------2-------2-------2-------2--|
B|------2---------------(2)-----(2)--------5-----5---------5-----5------|
G|----4---------------(4)---------(4)----4---------4-----4---------4----|
D|--4-------4-------4--------4---------2-------2-------2-------2--------|
A|----------------------------------------------------------------------|
E|----------------------------------------------------------------------|


| /   slide up
| \   slide down
| h   hammer-on
| p   pull-off
| ~   vibrato

************************************
            
Submit corrections



        If You're Not The One lessons Hard to play? Try these video lessons and learn fast If You're Not The One lessons
        
↑ Back to top | Tablatures and chords for acoustic guitar and electric guitar, ukulele, drums are parodies/interpretations of the original songs. You may use it for private study, scholarship, research or language learning purposes only