Home » D » Daniela Andrade »

Daniela Andrade - Gentleman Tabs

Artists:  A B C D E F G H I J K L M N O P Q R S T U V W X Y Z # 

Gentleman Tabs

(ver. 1) Click to play this song!
Daniela Andrade
 Rating:
2.8/5 (20 votes)
                Capo 3

All chords relative to capo (so capo = 0)


NOTE:

-This tab should be used in conjunction with the chords sheet I submitted a while back,
 which is more of a general how-to-play-like-the-song-sounds kind of tab.

-This tab goes more into detail towards what the lead guitar bits are playing during the song.



Chords used:
------------
   Dm9 OR F   Cmaj7 Dm7 Em7         G   |   Intro bit with F:
                                        |
e|--0-----0----0--------------------0---|---0--0-----------------------------|
B|--5-----1----0-----3---5----------3---|---1--1--3--1--0--------------------|
G|--5-----2----0-----2---4----------4---|---2--2--------0--------------------|
D|--3-----3----2-----3---5----------5---|---3--3--------2--------------------|
A|--5-----3----3-----3---5----------5---|---3--3--------3--------------------|
E|--x-----x-------------------------x---|---x--x-----------------------------|



Intro:  - hammer on + pulloff is actually 3x but I will                                               
------    write it once only, to not take up so much space

   Dm9      Cmaj7  Dm9        Cmaj7/C        Dm9         Cmaj7             Dm7 Em7    C
e|---------------------------------------------------------------------------------------|        (0.00-0.22)
B|--5-------0------5---3--1---0h1p0----------3/5--3/5-3---0-----------------1--3/5----0--|
G|--5-------0------5---4--2---0------0-------4/5--------5-0----4b5br4-------2--2/4----0--|
D|--------------------------------------0h2----------------------------0h2--3--3/5----2--|
A|--------------------------------------------------------3---------------------------3--|
E|---------------------------------------------------------------------------------------|


Verse:
------                                                                                                     
My day is well into the afternoon 
                    |And nothing's going right 
                    |                 |The weeks are flying past I'm in over my head 
                    |                 |                 |And I can't get you off my mind
e|---------------------------------------------------------------------------------------|       (0.23 - 0.44)
B|--5-------0-------3/5-------0-------5--(3-1)--0-------5-------0------------------------|
G|--5-------0-------4/5-------0-------5---------0-------5-------0------------------------|
D|-----------------------------------------------------------------------3/5-3-2---------|
A|---------------------------------------------------------------------3-----------------|
E|---------------------------------------------------------------------------------------|
 
     It was the night I chose my favourite dress 
                    |And you were wearing your best suit
                    |                 |It was about that time when everyone was sound asleep 
                    |                 |                         |And I was up talking to you
e|----------------------------------------------------------------------------x-x-x------|       (0.45 - 1.09)
B|--5-------0-------3/5-------0-----3/5---3-1---0----0h1p0------5------0------x-x-x------|
G|--5-------0-------4/5-------0-----4/5---------0---------------5------0------x-x-x------|
D|--------------------------------------------------------0h2-----------------x-x-x------|
A|--3/5-----------------------------------------------------------------------x-x-x------|
E|----------------------------------------------------------------------------x-x-x------|



Chorus: Unrelated to capo - play 12th fret as 12th fret.
-------

    No  one  told me..right    way   to   fall      To fall deep in love      But..

e|--11-------11-------------13-10----------11-------11----------------10----------|              (1.10 - 1.33)
B|-----11-------11-------11-------11----------11-------11-------11-------11-------|
G|--------13-------13-12-------------12/13-------13-------13-12----12-------12/13-|
D|--------------------------------------------------------------------------------|
A|--------------------------------------------------------------------------------|
E|--------------------------------------------------------------------------------|

   you held my heart..right    ways     Just like a gentleman

e|--11-------11----------------10----------------11-------11-11-------------------|
B|-----11-------11-------11-------11----------11-------11----11-------------------|
G|--------13-------13-12----12-------12/13-13-------13-------12-------------------|
D|-----------------------------------------------------------13-------------------|
A|--------------------------------------------------------------------------------|
E|--------------------------------------------------------------------------------|



Instrumental break:
e|----------------------------------------------------------------------------------------------|(1.34 - 1.58)
B|--3/5---3/5-3-1-0---0h1-3-5---5-3-1--0h1p0--------3/5--3/5-3---0-----------------1--3/5----0--|
G|--4/5---4/5-4-2-0---0h2-4-5---5-4-2--0-----0------4/5--------5-0----4b5br4-------2--2/4----0--|
D|---------------------------------------------0h2----------------------------0h2--3--3/5----2--|
A|---------------------------------------------------------------3---------------------------3--|
E|----------------------------------------------------------------------------------------------|



Verse:
------                                                                                                    
       And it's so easy to get back to you
                    |And harder to get by
                    |                 |Cause there's just something about the way you say my name 
                    |                 |                 |Softly through the telephone lines woaooh
e|---------------------------------------------------------------------------------------|       (1.59 - 2.22)
B|--5-------0-------3/5-------0-------5---------0-------5-------0------------------------|
G|--5-------0-------4/5-------0-------5---------0-------5-------0------------------------|
D|---------------------------------------------------------------------------------------|
A|---------------------------------------------------------------------3-5-3-------------|
E|---------------------------------------------------------------------------------------|
 


Chorus 2: Unrelated to capo - play 12th fret as 12th fret.
--------

    No  one  told me..right    way   to   fall      To fall deep in love      But..

e|--11-------11----------------10----------11-------11----------------10----------|              (2.23 - 2.44)
B|-----11-------11-------11-------11----------11-------11-------11-------11-------|
G|--------13-------13-12----12-------12/13-------13-------13-12----12-------12/13-|
D|--------------------------------------------------------------------------------|
A|--------------------------------------------------------------------------------|
E|--------------------------------------------------------------------------------|

   you held my heart..right    ways     Just like a gentleman...woaoohh

e|--11-------11----------------10----------------11-------11----------11----------|
B|-----11-------11-------11-------11----------11-------11-------11-------11-------|
G|--------13-------13-12----12-------12/13-13-------13-------12----12-------12----|
D|--------------------------------------------------------------------------------|
A|--------------------------------------------------------------------------------|
E|--------------------------------------------------------------------------------|


    No  one  told me..right    way   to   fall      To fall deep in love      But..

e|--11-------11----------------10----------11-------11----------------10----------|              (2.45 - 3.07)
B|-----11-------11-------11-------11----------11-------11-------11-------11-------|
G|--------13-------13-12----12-------12/13-------13-------13-12----12-------12/13-|
D|--------------------------------------------------------------------------------|
A|--------------------------------------------------------------------------------|
E|--------------------------------------------------------------------------------|

   you held my heart..right    ways     Just like a gentleman

e|--11-------11----------------10----------------11-------11-11-------------------|
B|-----11-------11-------11-------11----------11-------11----11-------------------|
G|--------13-------13-12----12-------12/13-13-------13-------12-------------------|
D|-----------------------------------------------------------13-------------------|
A|--------------------------------------------------------------------------------|
E|--------------------------------------------------------------------------------|   

               Just like a gentleman      oooh ooooh oo....
                                                                  Acoustic ends on 
e|--------------------11-------11-11------------11-------11-11--|-----------------|              (3.08 - 3.22)
B|-----------------11-------11----11---------11-------11----11--|----------5------|
G|--------------13-------13-------12------13-------13-------12--|--------4--------|
D|----3/5-3-2---------------------13------------------------13--|------5----------|
A|--3-----------------------------------------------------------|----3------------|
E|--------------------------------------------------------------|-----------------|            
Submit corrections

↑ Back to top | Tablatures and chords for acoustic guitar and electric guitar, ukulele, drums are parodies/interpretations of the original songs. You may use it for private study, scholarship, research or language learning purposes only