» » »

Dance Gavin Dance - Tree Village Bass

Artists:  A B C D E F G H I J K L M N O P Q R S T U V W X Y Z # 

Tree Village Bass

(ver. 1) Click to play this song!
Dance Gavin Dance
 Rating:
4/5 (4 votes)


 Tree Village lessons Tabs too difficult? Try these video lessons and learn fast
 
                -----------------------------------------------------------------
Tree Village- Dance Gavin Dance
-----------------------------------------------------------------
Tuning:EADG

0:09-0:25
G|-------------------|
D|-------------------|
A|---7~---12~---5~---|
E|-------------------| x4

0:25-0:42
G|---------------------------------------------------------------|
D|---------------------------------------------------------------|
A|----77777---77777---1212121212---55555-------------------------|
E|---------------------------------------------------------------|

G|---------------------------------------------------------------|
D|---------------------------------------------------------------|
A|----77777---77777---00000---55555------------------------------|
E|---------------------------------------------------------------|x2

0:42-0:59
G|---------------------------------------------------------------|
D|---------------------------------------------------------------|
A|--7~---10~---12~-----5x—5x-5x---3x-3x-3x-----------------------|
E|---------------------------------------------------------------|x4

0:59-1:16
G|-----------------|
D|-----------------|
A|--7~---5~---3~---|
E|-----------------|x4

1:16-1:38
G|---------------------------------------------------------------|
D|---------------------------------------------------------------|
A|--3-33-3-33333-----------------3-33—3-33333--5-55-5-555555-77x-|
E|-----------------0-00-0-000000---------------------------------|x2

G|----------|
D|----------|
A|----3~----|
E|----------|

1:38-1:48
G|-------------|
D|-------------|
A|----REST-----|
E|-------------|

1:48-2:09
G|---------------------------------------------------------------|
D|---------------------------------------------------------------|
A|---3-33x-3x-3x-3x-3x-33x---5-55x-5x-5x-5x-5x-55x ---77x--------|
E|---------------------------------------------------------------|

G|---------------------------------------------------------------|
D|---------------------------------------------------------------|
A|---3-33x-3x-3x-3x-3x-33x---5-55x-5x-5x-5x-5x-55/12-1212--------|
E|---------------------------------------------------------------|x3

2:09-2:30
G|-------------|
D|-------------|
A|---3~---7~---|
E|-------------|x4
2:30-2:52
G|---------------------------------------------------------------|
D|---------------------------------------------------------------|
A|--33333333333---77777777777------------------------------------|
E|---------------------------------------------------------------|x4
2:52-3:22
G|-------------|
D|-------------|
A|---7~---7~---|
E|-------------|

| /  slide up
| \  slide down
| h  hammer-on
| p  pull-off
| ~  vibrato
| +  harmonic
| x  Mute note
            
Submit corrections



        Tree Village lessons Hard to play? Try these video lessons and learn fast Tree Village lessons
        
↑ Back to top | Tablatures and chords for acoustic guitar and electric guitar, ukulele, drums are parodies/interpretations of the original songs. You may use it for private study, scholarship, research or language learning purposes only