Home » D » Dance Gavin Dance »

Dance Gavin Dance - Pounce Bounce Tabs

Artists:  A B C D E F G H I J K L M N O P Q R S T U V W X Y Z # 

Pounce Bounce Tabs

(ver. 1) Click to play this song!
Dance Gavin Dance
[Intro]

D#|-5-5-5----8-8-8----5-5-5----8-8-8----5-5-5--5-5-5--------------------------|
A#|-x-x-x----x-x-x----x-x-x----x-x-x----x-x-x--x-x-x--------------------------|
F#|-5-5-5----7-7-7----5-5-5----7-7-7----5-5-5--5-5-5--------------------------|
C#|-x-x-x----x-x-x----x-x-x----x-x-x----x-x-x--x-x-x--------------------------|
G#|-5-5-5----8-8-8----5-5-5----8-8-8----5-5-5--8-8-8--------------------------|
C#|---------------------------------------------------------------------------|

D#|-5-5-5----8-8-8----5-5-5----8-8-8------------------------------------------|
A#|-x-x-x----x-x-x----x-x-x----x-x-x------------------------------------------|
F#|-5-5-5----7-7-7----5-5-5----7-7-7------------------------------------------|
C#|-x-x-x----x-x-x----x-x-x----x-x-x------------------------------------------|
G#|-5-5-5----8-8-8----5-5-5----8-8-8------------------------------------------|
C#|-3-3-3-------------5-5-5---------------------------------------------------|

[Verse]

D#|-10--8--10--8--17--15--17--15--17b18r17----10--8--10--8--15--13--15--13~~~-|
A#|---------------------------------------------------------------------------|
F#|---------------------------------------------------------------------------|
C#|---------------------------------------------------------------------------|
G#|---------------------------------------------------------------------------|
C#|---------------------------------------------------------------------------|

D#|-10--8--10--8--17--15--17--15--17b18r17----10--8--10--8--15--13--15--13----|
A#|---------------------------------------------------------------------------|
F#|---------------------------------------------------------------------------|
C#|---------------------------------------------------------------------------|
G#|---------------------------------------------------------------------------|
C#|---------------------------------------------------------------------------|

D#|-15h17p15p13-15h17p15p13---------------------------------------------------|
A#|---------------------------------------------------------------------------|
F#|---------------------------------------------------------------------------|
C#|---------------------------------------------------------------------------|
G#|---------------------------------------------------------------------------|
C#|---------------------------------------------------------------------------|

D#|-10--8--10--8--17--15--17--15--17b18r17----10--8--10--8--15--13--15--13----|
A#|---------------------------------------------------------------------------|
F#|---------------------------------------------------------------------------|
C#|---------------------------------------------------------------------------|
G#|---------------------------------------------------------------------------|
C#|---------------------------------------------------------------------------|

D#|-10--8--10--8--17--15--17--15--17b18r17----10--8--10--8--15--13--15~~~~~---|
A#|---------------------------------------------------------------------------|
F#|---------------------------------------------------------------------------|
C#|---------------------------------------------------------------------------|
G#|---------------------------------------------------------------------------|
C#|---------------------------------------------------------------------------|

[Pre-Chorus]

D#|---------------------------------------------------------------------------|
A#|---------------------------------------------------------------------------|
F#|---------------------------------------------------------------------------|
C#|---------------------------------------------------------------------------|
G#|-5-5-5-5-3-3-3-3-0-0-0-0-5-5-5-5-3-3-3-3-0-0-0-0-5-5-5-5-3-3-3-3-0-0-0-0---|
C#|---------------------------------------------------------------------------|

D#|---------------------------------------------------------------------------|
A#|---------------------------------------------------------------------------|
F#|---------------------------------------------------------------------------|
C#|---------------------------------------------------------------------------|
G#|-7-7-7-7-8-8-8-8-----------------------------------------------------------|
C#|---------------------------------------------------------------------------|

D#|---------------------------------------------------------------------------|
A#|---------------------------------------------------------------------------|
F#|---------------------------------------------------------------------------|
C#|---------------------------------------------------------------------------|
G#|-5-5-5-5-3-3-3-3-0-0-0-0-5-5-5-5-3-3-3-3-0-0-0-0-5-5-5-5-3-3-3-3-0-0-0-0---|
C#|---------------------------------------------------------------------------|

D#|---------------------------------------------------------------------------|
A#|---------------------------------------------------------------------------|
F#|---------------------------------------------------------------------------|
C#|---------------------------------------------------------------------------|
G#|-7-7-7-7-8-8-8-8-5-5-5-5-3-3-3-3-0-0-0-0-5-5-5-5-5-5-----------------------|
C#|---------------------------------------------------------------------------|

[Chorus]

D#|---------------------------------------------------------------------------|
A#|---------------------------------------------------------------------------|
F#|-5-----7-5~~--------------------5-----7--5~~-----------------------9-b10r9-|
C#|----7--------3h5-5-5-5-5-5-7-------7----------5-5-5-5-5-5-5-5-5-5----------|
G#|-----------------------------7---------------------------------------------|
C#|---------------------------------------------------------------------------|
       .            . .                          . . .       . . . .
D#|-----------10---------12h13p12p10------------------------------------------|
A#|---------------13--10-------------13---------------------------------------|
F#|-5-----7/9----------------------------5--------5---------9b10r9------------|
C#|----7---------------------------------------------3h5-5--------------------|
G#|-----------------------------------------5--8------------------------------|
C#|---------------------------------------------------------------------------|
       .                                    .  .

D#|---------------------------------------------------------------------------|
A#|---------------------------------------------------------------------------|
F#|-5-----7-5~~--------------------5-----7--5~~----------------------9-b10r9--|
C#|----7--------3h5-5-5-5-5-5-7-------7---------5-5-5-5-5-5-5-5-5-5-----------|
G#|-----------------------------7---------------------------------------------|
C#|---------------------------------------------------------------------------|
       .            . .                           . . .     . . . .

D#|-----------10---------12h13p12p10------------------------------------------|
A#|---------------8--10-------------13----------------------------------------|
F#|-5-----7/9----------------------------5--------5---------9b10r9------------|
C#|----7---------------------------------------------3h5-5--------------------|
G#|-----------------------------------------5--8------------------------------|
C#|---------------------------------------------------------------------------|
       .                                    .  .

[Verse2]

D#|-5-5-5----8-8-8----5-5-5----8-8-8----5-5-5--5-5-5--------------------------|
A#|-x-x-x----x-x-x----x-x-x----x-x-x----x-x-x--x-x-x--------------------------|
F#|-5-5-5----7-7-7----5-5-5----7-7-7----5-5-5--5-5-5--------------------------|
C#|-x-x-x----x-x-x----x-x-x----x-x-x----x-x-x--x-x-x--------------------------|
G#|-5-5-5----8-8-8----5-5-5----8-8-8----5-5-5--8-8-8--------------------------|
C#|---------------------------------------------------------------------------|

D#|-5-5-5----8-8-8----5-5-5----8-8-8------------------------------------------|
A#|-x-x-x----x-x-x----x-x-x----x-x-x------------------------------------------|
F#|-5-5-5----7-7-7----5-5-5----7-7-7------------------------------------------|
C#|-x-x-x----x-x-x----x-x-x----x-x-x------------------------------------------|
G#|-3-3-3----8-8-8----5-5-5----8-8-8------------------------------------------|
C#|-------------------5-5-5---------------------------------------------------|

D#|-10--8--10--8--17--15--17--15--17b18r17----10--8--10--8--15--13--15--13~~~-|
A#|---------------------------------------------------------------------------|
F#|---------------------------------------------------------------------------|
C#|---------------------------------------------------------------------------|
G#|---------------------------------------------------------------------------|
C#|---------------------------------------------------------------------------|

D#|-10--8--10--8--17--15--17--15--17b18r17----10--8--10--8--15--13--15--13----|
A#|---------------------------------------------------------------------------|
F#|---------------------------------------------------------------------------|
C#|---------------------------------------------------------------------------|
G#|---------------------------------------------------------------------------|
C#|---------------------------------------------------------------------------|

D#|-15h17p15p13-15h17p15p13---------------------------------------------------|
A#|---------------------------------------------------------------------------|
F#|---------------------------------------------------------------------------|
C#|---------------------------------------------------------------------------|
G#|---------------------------------------------------------------------------|
C#|---------------------------------------------------------------------------|

D#|-10--8--10--8--17--15--17--15--17b18r17----10--8--10--8--15--13--15--13----|
A#|---------------------------------------------------------------------------|
F#|---------------------------------------------------------------------------|
C#|---------------------------------------------------------------------------|
G#|---------------------------------------------------------------------------|
C#|---------------------------------------------------------------------------|

D#|-10--8--10--8--17--15--17--15--17b18r17----10--8--10--8--15--13--15~~~~~---|
A#|---------------------------------------------------------------------------|
F#|---------------------------------------------------------------------------|
C#|---------------------------------------------------------------------------|
G#|---------------------------------------------------------------------------|
C#|---------------------------------------------------------------------------|

[Bridge]

D#|---------------------------------------------------------------------------|
A#|-10~~~-10~~~~-10~~~~-8-10~~~~-10---8---------------------------------------|
F#|-------9/10~~-9/10~~---9/10~~-9/10-9---------------------------------------|
C#|---------------------------------------------------------------------------|
G#|---------------------------------------------------------------------------|
C#|---------------------------------------------------------------------------|

D#|---------------------------------------------------------------------------|
A#|-13~~~-10~~~~-10~~~~-8-10~~~~-10---8---------------------------------------|
F#|-------9/10~~-9/10~~---9/10~~-9/10-9---------------------------------------|
C#|---------------------------------------------------------------------------|
G#|---------------------------------------------------------------------------|
C#|---------------------------------------------------------------------------|

D#|--------------12-----------------------------------------------------------|
A#|-----10-13-10----13-10--------10h13p10-*13*--10~~~~--8--10~~~~-10~~~~-10---|
F#|-10~~------------------10~~~~----------------9/10~~-----9/10~~-9/10~~-9/10-|
C#|---------------------------------------------------------------------------|
G#|---------------------------------------------------------------------------|
C#|---------------------------------------------------------------------------|

D#|---------------------------------------------------------------------------|
A#|-8--13~~~~--13~~~~~--------------------------------------------------------|
F#|-9--10~~~~--9~~~~~~--------------------------------------------------------|
C#|----10~~~~--10~~~~~--------------------------------------------------------|
G#|---------------------------------------------------------------------------|
C#|---------------------------------------------------------------------------|

[Chorus]

D#|---------------------------------------------------------------------------|
A#|---------------------------------------------------------------------------|
F#|-5-----7-5~~--------------------5-----7--5~~-----------------------9-b10r9-|
C#|----7--------3h5-5-5-5-5-5-7-------7----------5-5-5-5-5-5-5-5-5-5----------|
G#|-----------------------------7---------------------------------------------|
C#|---------------------------------------------------------------------------|
       .            . .                          . . .       . . . .
D#|-----------10---------12h13p12p10------------------------------------------|
A#|---------------13--10-------------13---------------------------------------|
F#|-5-----7/9----------------------------5--------5---------9b10r9------------|
C#|----7---------------------------------------------3h5-5--------------------|
G#|-----------------------------------------5--8------------------------------|
C#|---------------------------------------------------------------------------|
       .                                    .  .

D#|---------------------------------------------------------------------------|
A#|---------------------------------------------------------------------------|
F#|-5-----7-5~~--------------------5-----7--5~~----------------------9-b10r9--|
C#|----7--------3h5-5-5-5-5-5-7-------7---------5-5-5-5-5-5-5-5-5-5-----------|
G#|-----------------------------7---------------------------------------------|
C#|---------------------------------------------------------------------------|
       .            . .                           . . .     . . . .

D#|-----------10---------12h13p12p10------------------------------------------|
A#|---------------8--10-------------13----------------------------------------|
F#|-5-----7/9----------------------------5--------5---------9b10r9------------|
C#|----7---------------------------------------------3h5-5--------------------|
G#|-----------------------------------------5--8------------------------------|
C#|---------------------------------------------------------------------------|



[Outro]

D#|-5-5-5----8-8-8----5-5-5----8-8-8------------------------------------------|
A#|-x-x-x----x-x-x----x-x-x----x-x-x------------------------------------------|
F#|-5-5-5----7-7-7----5-5-5----7-7-7------------------------------------------|
C#|-x-x-x----x-x-x----x-x-x----x-x-x------------------------------------------|
G#|-5-5-5----8-8-8----5-5-5----8-8-8------------------------------------------|
C#|---------------------------------------------------------------------------|
            
Submit corrections

↑ Back to top | Tablatures and chords for acoustic guitar and electric guitar, ukulele, drums are parodies/interpretations of the original songs. You may use it for private study, scholarship, research or language learning purposes only